  0
SECTION
  2
HEADER
  9
$ACADVER
  1
AC1009
  9
$INSBASE
 10
0.0
 20
0.0
 30
0.0
  9
$EXTMIN
 10
-0.004833842228436
 20
-0.0118288425776427
 30
-0.0000000000112498
  9
$EXTMAX
 10
297.0035410293703
 20
775.3570037947128
 30
0.0000000000002956
  9
$LIMMIN
 10
0.0
 20
0.0
  9
$LIMMAX
 10
297.0
 20
420.0
  9
$ORTHOMODE
 70
     0
  9
$REGENMODE
 70
     1
  9
$FILLMODE
 70
     1
  9
$QTEXTMODE
 70
     0
  9
$MIRRTEXT
 70
     1
  9
$DRAGMODE
 70
     2
  9
$LTSCALE
 40
1.0
  9
$OSMODE
 70
     1
  9
$ATTMODE
 70
     1
  9
$TEXTSIZE
 40
4.0
  9
$TRACEWID
 40
1.0
  9
$TEXTSTYLE
  7
STANDARD
  9
$CLAYER
  8
0
  9
$CELTYPE
  6
BYLAYER
  9
$CECOLOR
 62
   256
  9
$DIMSCALE
 40
1.0
  9
$DIMASZ
 40
2.5
  9
$DIMEXO
 40
0.625
  9
$DIMDLI
 40
3.75
  9
$DIMRND
 40
0.0
  9
$DIMDLE
 40
0.0
  9
$DIMEXE
 40
1.25
  9
$DIMTP
 40
0.0
  9
$DIMTM
 40
0.0
  9
$DIMTXT
 40
2.5
  9
$DIMCEN
 40
2.5
  9
$DIMTSZ
 40
0.0
  9
$DIMTOL
 70
     0
  9
$DIMLIM
 70
     0
  9
$DIMTIH
 70
     0
  9
$DIMTOH
 70
     0
  9
$DIMSE1
 70
     0
  9
$DIMSE2
 70
     0
  9
$DIMTAD
 70
     1
  9
$DIMZIN
 70
     0
  9
$DIMBLK
  1

  9
$DIMASO
 70
     1
  9
$DIMSHO
 70
     1
  9
$DIMPOST
  1

  9
$DIMAPOST
  1

  9
$DIMALT
 70
     0
  9
$DIMALTD
 70
     3
  9
$DIMALTF
 40
0.03937007874016
  9
$DIMLFAC
 40
1.0
  9
$DIMTOFL
 70
     1
  9
$DIMTVP
 40
0.0
  9
$DIMTIX
 70
     0
  9
$DIMSOXD
 70
     0
  9
$DIMSAH
 70
     0
  9
$DIMBLK1
  1

  9
$DIMBLK2
  1

  9
$DIMSTYLE
  2
ISO-25
  9
$DIMCLRD
 70
     0
  9
$DIMCLRE
 70
     0
  9
$DIMCLRT
 70
     0
  9
$DIMTFAC
 40
1.0
  9
$DIMGAP
 40
0.625
  9
$LUNITS
 70
     2
  9
$LUPREC
 70
     4
  9
$SKETCHINC
 40
1.0
  9
$FILLETRAD
 40
0.0
  9
$AUNITS
 70
     0
  9
$AUPREC
 70
     0
  9
$MENU
  1
.
  9
$ELEVATION
 40
0.0
  9
$PELEVATION
 40
0.0
  9
$THICKNESS
 40
0.0
  9
$LIMCHECK
 70
     0
  9
$BLIPMODE
 70
     0
  9
$CHAMFERA
 40
0.0
  9
$CHAMFERB
 40
0.0
  9
$SKPOLY
 70
     0
  9
$TDCREATE
 40
2452194.4037277768
  9
$TDUPDATE
 40
2452306.4310099538
  9
$TDINDWG
 40
1.6747928241000001
  9
$TDUSRTIMER
 40
1.6747922453999999
  9
$USRTIMER
 70
     1
  9
$ANGBASE
 50
0.0
  9
$ANGDIR
 70
     0
  9
$PDMODE
 70
     3
  9
$PDSIZE
 40
0.0
  9
$PLINEWID
 40
0.0
  9
$COORDS
 70
     0
  9
$SPLFRAME
 70
     0
  9
$SPLINETYPE
 70
     6
  9
$SPLINESEGS
 70
     8
  9
$ATTDIA
 70
     0
  9
$ATTREQ
 70
     1
  9
$HANDLING
 70
-16383
  9
$HANDSEED
  5
7A3A
  9
$SURFTAB1
 70
     6
  9
$SURFTAB2
 70
     6
  9
$SURFTYPE
 70
     6
  9
$SURFU
 70
     6
  9
$SURFV
 70
     6
  9
$UCSNAME
  2

  9
$UCSORG
 10
0.0
 20
0.0
 30
0.0
  9
$UCSXDIR
 10
1.0
 20
0.0
 30
0.0
  9
$UCSYDIR
 10
0.0
 20
1.0
 30
0.0
  9
$PUCSNAME
  2

  9
$PUCSORG
 10
0.0
 20
0.0
 30
0.0
  9
$PUCSXDIR
 10
1.0
 20
0.0
 30
0.0
  9
$PUCSYDIR
 10
0.0
 20
1.0
 30
0.0
  9
$USERI1
 70
     1
  9
$USERI2
 70
     0
  9
$USERI3
 70
     0
  9
$USERI4
 70
     0
  9
$USERI5
 70
     0
  9
$USERR1
 40
1.0
  9
$USERR2
 40
1.0
  9
$USERR3
 40
0.0
  9
$USERR4
 40
0.0
  9
$USERR5
 40
0.0
  9
$WORLDVIEW
 70
     1
  9
$SHADEDGE
 70
     3
  9
$SHADEDIF
 70
    70
  9
$TILEMODE
 70
     1
  9
$MAXACTVP
 70
    48
  9
$PLIMCHECK
 70
     0
  9
$PEXTMIN
 10
0.1778145603150278
 20
-0.3103504260435557
 30
0.0
  9
$PEXTMAX
 10
198.13268467571959
 20
283.17468584801992
 30
0.0
  9
$PLIMMIN
 10
-5.8737497329711923
 20
-5.8737478256225559
  9
$PLIMMAX
 10
204.18424892425529
 20
291.05224704742432
  9
$UNITMODE
 70
     0
  9
$VISRETAIN
 70
     1
  9
$PLINEGEN
 70
     0
  9
$PSLTSCALE
 70
     1
  0
ENDSEC
  0
SECTION
  2
TABLES
  0
TABLE
  2
VPORT
 70
     3
  0
VPORT
  2
*ACTIVE
 70
     0
 10
0.0
 20
0.0
 11
1.0
 21
1.0
 12
148.4993535935709
 22
387.67258747606769
 13
0.0
 23
0.0
 14
10.0
 24
10.0
 15
10.0
 25
10.0
 16
0.0
 26
0.0
 36
1.0
 17
0.0
 27
0.0
 37
0.0
 40
783.93644404764746
 41
1.2952029520295201
 42
50.0
 43
0.0
 44
0.0
 50
0.0
 51
0.0
 71
     0
 72
   100
 73
     1
 74
     3
 75
     0
 76
     0
 77
     0
 78
     0
  0
ENDTAB
  0
TABLE
  2
LTYPE
 70
     1
  0
LTYPE
  2
CONTINUOUS
 70
     0
  3
Solid line
 72
    65
 73
     0
 40
0.0
  0
ENDTAB
  0
TABLE
  2
LAYER
 70
     1
  0
LAYER
  2
0
 70
     0
 62
     7
  6
CONTINUOUS
  0
ENDTAB
  0
TABLE
  2
STYLE
 70
     2
  0
STYLE
  2
STANDARD
 70
     0
 40
0.0
 41
1.0
 50
0.0
 71
     0
 42
4.0
  3
txt.shx
  4
bigfont.shx
  0
STYLE
  2
STANDATDT
 70
     4
 40
0.0
 41
1.0
 50
0.0
 71
     0
 42
4.0
  3
txt.shx
  4
bigfont.shx
  0
ENDTAB
  0
TABLE
  2
VIEW
 70
     0
  0
ENDTAB
  0
TABLE
  2
UCS
 70
     0
  0
ENDTAB
  0
TABLE
  2
APPID
 70
     1
  0
APPID
  2
ACAD
 70
     0
  0
ENDTAB
  0
TABLE
  2
DIMSTYLE
 70
     2
  0
DIMSTYLE
  2
ISO-25
 70
     0
  3

  4

  5

  6

  7

 40
1.0
 41
2.5
 42
0.625
 43
3.75
 44
1.25
 45
0.0
 46
0.0
 47
0.0
 48
0.0
140
2.5
141
2.5
142
0.0
143
0.03937007874016
144
1.0
145
0.0
146
1.0
147
0.625
 71
     0
 72
     0
 73
     0
 74
     0
 75
     0
 76
     0
 77
     1
 78
     8
170
     0
171
     3
172
     1
173
     0
174
     0
175
     0
176
     0
177
     0
178
     0
  0
DIMSTYLE
  2
STANDARD
 70
     0
  3

  4

  5

  6

  7

 40
1.0
 41
0.18
 42
0.0625
 43
0.38
 44
0.18
 45
0.0
 46
0.0
 47
0.0
 48
0.0
140
0.18
141
0.09
142
0.0
143
25.399999999999999
144
1.0
145
0.0
146
1.0
147
0.09
 71
     0
 72
     0
 73
     1
 74
     1
 75
     0
 76
     0
 77
     0
 78
     0
170
     0
171
     2
172
     0
173
     0
174
     0
175
     0
176
     0
177
     0
178
     0
  0
ENDTAB
  0
ENDSEC
  0
SECTION
  2
BLOCKS
  0
BLOCK
  8
0
  2
$MODEL_SPACE
 70
     0
 10
0.0
 20
0.0
 30
0.0
  3
$MODEL_SPACE
  1

  0
ENDBLK
  5
6BFB
  8
0
  0
BLOCK
 67
     1
  8
0
  2
$PAPER_SPACE
 70
     0
 10
0.0
 20
0.0
 30
0.0
  3
$PAPER_SPACE
  1

  0
ENDBLK
  5
6BF7
 67
     1
  8
0
  0
BLOCK
  8
0
  2
*X0
 70
     1
 10
0.0
 20
0.0
 30
0.0
  3
*X0
  1

  0
LINE
  5
6C0B
  8
0
 62
     0
 10
20.514953819341478
 20
50.102174034792732
 30
0.0
 11
20.514953819341478
 21
50.102174034792732
 31
0.0
  0
LINE
  5
6C0C
  8
0
 62
     0
 10
20.073000292564021
 20
50.507149828845883
 30
0.0
 11
20.073000292564021
 21
50.507149828845883
 31
0.0
  0
LINE
  5
6C0D
  8
0
 62
     0
 10
19.979366070789151
 20
50.592949785213072
 30
0.0
 11
19.979366070789151
 21
50.592949785213072
 31
0.0
  0
LINE
  5
6C0E
  8
0
 62
     0
 10
19.473741273204752
 20
51.056269549595882
 30
0.0
 11
19.473741273204752
 21
51.056269549595882
 31
0.0
  0
LINE
  5
6C0F
  8
0
 62
     0
 10
19.031787746427302
 20
51.461245343649011
 30
0.0
 11
19.031787746427302
 21
51.461245343649011
 31
0.0
  0
LINE
  5
6C10
  8
0
 62
     0
 10
18.938153524652421
 20
51.547045300016201
 30
0.0
 11
18.938153524652421
 21
51.547045300016201
 31
0.0
  0
LINE
  5
6C11
  8
0
 62
     0
 10
21.60011319750862
 20
50.953008475360321
 30
0.0
 11
21.60011319750862
 21
50.953008475360321
 31
0.0
  0
LINE
  5
6C12
  8
0
 62
     0
 10
21.50647897573371
 20
51.038808431727503
 30
0.0
 11
21.50647897573371
 21
51.038808431727503
 31
0.0
  0
LINE
  5
6C13
  8
0
 62
     0
 10
21.00085417814935
 20
51.502128196110327
 30
0.0
 11
21.00085417814935
 21
51.502128196110327
 31
0.0
  0
LINE
  5
6C14
  8
0
 62
     0
 10
20.558900651371872
 20
51.907103990163449
 30
0.0
 11
20.558900651371872
 21
51.907103990163449
 31
0.0
  0
LINE
  5
6C15
  8
0
 62
     0
 10
20.465266429597008
 20
51.992903946530639
 30
0.0
 11
20.465266429597008
 21
51.992903946530639
 31
0.0
  0
LINE
  5
6C16
  8
0
 62
     0
 10
19.95964163201262
 20
52.456223710913463
 30
0.0
 11
19.95964163201262
 21
52.456223710913463
 31
0.0
  0
LINE
  5
6C17
  8
0
 62
     0
 10
19.517688105235159
 20
52.861199504966571
 30
0.0
 11
19.517688105235159
 21
52.861199504966571
 31
0.0
  0
LINE
  5
6C18
  8
0
 62
     0
 10
19.424053883460282
 20
52.946999461333768
 30
0.0
 11
19.424053883460282
 21
52.946999461333768
 31
0.0
  0
LINE
  5
6C19
  8
0
 62
     0
 10
18.918429085875871
 20
53.410319225716592
 30
0.0
 11
18.918429085875871
 21
53.410319225716592
 31
0.0
  0
LINE
  5
6C1A
  8
0
 62
     0
 10
21.486754536957221
 20
52.902082357427879
 30
0.0
 11
21.486754536957221
 21
52.902082357427879
 31
0.0
  0
LINE
  5
6C1B
  8
0
 62
     0
 10
21.044801010179761
 20
53.307058151481009
 30
0.0
 11
21.044801010179761
 21
53.307058151481009
 31
0.0
  0
LINE
  5
6C1C
  8
0
 62
     0
 10
20.951166788404851
 20
53.392858107848198
 30
0.0
 11
20.951166788404851
 21
53.392858107848198
 31
0.0
  0
LINE
  5
6C1D
  8
0
 62
     0
 10
19.448276276714161
 20
56.615203342404882
 30
0.0
 11
19.448276276714161
 21
56.615203342404882
 31
0.0
  0
LINE
  5
6C1E
  8
0
 62
     0
 10
19.354642054939291
 20
56.701003298772072
 30
0.0
 11
19.354642054939291
 21
56.701003298772072
 31
0.0
  0
LINE
  5
6C1F
  8
0
 62
     0
 10
18.849017257354902
 20
57.164323063154882
 30
0.0
 11
18.849017257354902
 21
57.164323063154882
 31
0.0
  0
LINE
  5
6C20
  8
0
 62
     0
 10
21.41734270843622
 20
56.656086194866191
 30
0.0
 11
21.41734270843622
 21
56.656086194866191
 31
0.0
  0
LINE
  5
6C21
  8
0
 62
     0
 10
20.975389181658748
 20
57.061061988919299
 30
0.0
 11
20.975389181658748
 21
57.061061988919299
 31
0.0
  0
LINE
  5
6C22
  8
0
 62
     0
 10
20.881754959883871
 20
57.146861945286489
 30
0.0
 11
20.881754959883871
 21
57.146861945286489
 31
0.0
  0
LINE
  5
6C23
  8
0
 62
     0
 10
20.376130162299479
 20
57.610181709669313
 30
0.0
 11
20.376130162299479
 21
57.610181709669313
 31
0.0
  0
LINE
  5
6C24
  8
0
 62
     0
 10
19.934176635522022
 20
58.015157503722442
 30
0.0
 11
19.934176635522022
 21
58.015157503722442
 31
0.0
  0
LINE
  5
6C25
  8
0
 62
     0
 10
19.840542413747141
 20
58.100957460089653
 30
0.0
 11
19.840542413747141
 21
58.100957460089653
 31
0.0
  0
LINE
  5
6C26
  8
0
 62
     0
 10
19.334917616162759
 20
58.564277224472463
 30
0.0
 11
19.334917616162759
 21
58.564277224472463
 31
0.0
  0
LINE
  5
6C27
  8
0
 62
     0
 10
18.892964089385298
 20
58.969253018525578
 30
0.0
 11
18.892964089385298
 21
58.969253018525578
 31
0.0
  0
LINE
  5
6C28
  8
0
 62
     0
 10
18.799329867610421
 20
59.055052974892767
 30
0.0
 11
18.799329867610421
 21
59.055052974892767
 31
0.0
  0
LINE
  5
6C29
  8
0
 62
     0
 10
21.46128954046662
 20
58.461016150236873
 30
0.0
 11
21.46128954046662
 21
58.461016150236873
 31
0.0
  0
LINE
  5
6C2A
  8
0
 62
     0
 10
21.367655318691721
 20
58.546816106604062
 30
0.0
 11
21.367655318691721
 21
58.546816106604062
 31
0.0
  0
LINE
  5
6C2B
  8
0
 62
     0
 10
20.86203052110735
 20
59.010135870986879
 30
0.0
 11
20.86203052110735
 21
59.010135870986879
 31
0.0
  0
LINE
  5
6C2C
  8
0
 62
     0
 10
20.4200769943299
 20
59.415111665040008
 30
0.0
 11
20.4200769943299
 21
59.415111665040008
 31
0.0
  0
LINE
  5
6C2D
  8
0
 62
     0
 10
20.326442772555009
 20
59.500911621407191
 30
0.0
 11
20.326442772555009
 21
59.500911621407191
 31
0.0
  0
LINE
  5
6C2E
  8
0
 62
     0
 10
19.820817974970641
 20
59.964231385790001
 30
0.0
 11
19.820817974970641
 21
59.964231385790001
 31
0.0
  0
LINE
  5
6C2F
  8
0
 62
     0
 10
19.94306916058796
 20
50.509383618055921
 30
0.0
 11
19.94306916058796
 21
50.509383618055921
 31
0.0
  0
LINE
  5
6C30
  8
0
 62
     0
 10
19.171872022536672
 20
51.000690379928272
 30
0.0
 11
19.171872022536672
 21
51.000690379928272
 31
0.0
  0
LINE
  5
6C31
  8
0
 62
     0
 10
18.957650595300201
 20
51.137164480448362
 30
0.0
 11
18.957650595300201
 21
51.137164480448362
 31
0.0
  0
LINE
  5
6C32
  8
0
 62
     0
 10
21.52505390107088
 20
50.51225798741303
 30
0.0
 11
21.52505390107088
 21
50.51225798741303
 31
0.0
  0
LINE
  5
6C33
  8
0
 62
     0
 10
20.753856763019559
 20
51.003564749285381
 30
0.0
 11
20.753856763019559
 21
51.003564749285381
 31
0.0
  0
LINE
  5
6C34
  8
0
 62
     0
 10
20.5396353357831
 20
51.140038849805471
 30
0.0
 11
20.5396353357831
 21
51.140038849805471
 31
0.0
  0
LINE
  5
6C35
  8
0
 62
     0
 10
19.532794627771668
 20
51.7814671222499
 30
0.0
 11
19.532794627771668
 21
51.7814671222499
 31
0.0
  0
LINE
  5
6C36
  8
0
 62
     0
 10
18.761597489720351
 20
52.272773884122252
 30
0.0
 11
18.761597489720351
 21
52.272773884122252
 31
0.0
  0
LINE
  5
6C37
  8
0
 62
     0
 10
21.114779368254609
 20
51.78434149160698
 30
0.0
 11
21.114779368254609
 21
51.78434149160698
 31
0.0
  0
LINE
  5
6C38
  8
0
 62
     0
 10
20.34358223020331
 20
52.275648253479332
 30
0.0
 11
20.34358223020331
 21
52.275648253479332
 31
0.0
  0
LINE
  5
6C39
  8
0
 62
     0
 10
20.129360802966811
 20
52.412122353999422
 30
0.0
 11
20.129360802966811
 21
52.412122353999422
 31
0.0
  0
LINE
  5
6C3A
  8
0
 62
     0
 10
19.122520094955391
 20
53.053550626443872
 30
0.0
 11
19.122520094955391
 21
53.053550626443872
 31
0.0
  0
LINE
  5
6C3B
  8
0
 62
     0
 10
20.704504835438289
 20
53.05642499580096
 30
0.0
 11
20.704504835438289
 21
53.05642499580096
 31
0.0
  0
LINE
  5
6C3C
  8
0
 62
     0
 10
19.933307697387001
 20
53.54773175767329
 30
0.0
 11
19.933307697387001
 21
53.54773175767329
 31
0.0
  0
LINE
  5
6C3D
  8
0
 62
     0
 10
21.51529243786991
 20
53.550606127030377
 30
0.0
 11
21.51529243786991
 21
53.550606127030377
 31
0.0
  0
LINE
  5
6C3E
  8
0
 62
     0
 10
19.47368123698946
 20
56.872675508382812
 30
0.0
 11
19.47368123698946
 21
56.872675508382812
 31
0.0
  0
LINE
  5
6C3F
  8
0
 62
     0
 10
18.702484098938161
 20
57.363982270255171
 30
0.0
 11
18.702484098938161
 21
57.363982270255171
 31
0.0
  0
LINE
  5
6C40
  8
0
 62
     0
 10
21.055665977472351
 20
56.875549877739921
 30
0.0
 11
21.055665977472351
 21
56.875549877739921
 31
0.0
  0
LINE
  5
6C41
  8
0
 62
     0
 10
20.284468839421042
 20
57.36685663961228
 30
0.0
 11
20.284468839421042
 21
57.36685663961228
 31
0.0
  0
LINE
  5
6C42
  8
0
 62
     0
 10
20.070247412184582
 20
57.50333074013237
 30
0.0
 11
20.070247412184582
 21
57.50333074013237
 31
0.0
  0
LINE
  5
6C43
  8
0
 62
     0
 10
19.063406704173161
 20
58.144759012576792
 30
0.0
 11
19.063406704173161
 21
58.144759012576792
 31
0.0
  0
LINE
  5
6C44
  8
0
 62
     0
 10
20.64539144465606
 20
58.1476333819339
 30
0.0
 11
20.64539144465606
 21
58.1476333819339
 31
0.0
  0
LINE
  5
6C45
  8
0
 62
     0
 10
19.87419430660476
 20
58.638940143806231
 30
0.0
 11
19.87419430660476
 21
58.638940143806231
 31
0.0
  0
LINE
  5
6C46
  8
0
 62
     0
 10
19.659972879368301
 20
58.775414244326342
 30
0.0
 11
19.659972879368301
 21
58.775414244326342
 31
0.0
  0
LINE
  5
6C47
  8
0
 62
     0
 10
18.653132171356859
 20
59.416842516770771
 30
0.0
 11
18.653132171356859
 21
59.416842516770771
 31
0.0
  0
LINE
  5
6C48
  8
0
 62
     0
 10
21.456179047087701
 20
58.641814513163332
 30
0.0
 11
21.456179047087701
 21
58.641814513163332
 31
0.0
  0
LINE
  5
6C49
  8
0
 62
     0
 10
21.241957619851231
 20
58.778288613683422
 30
0.0
 11
21.241957619851231
 21
58.778288613683422
 31
0.0
  0
LINE
  5
6C4A
  8
0
 62
     0
 10
20.235116911839778
 20
59.419716886127858
 30
0.0
 11
20.235116911839778
 21
59.419716886127858
 31
0.0
  0
LINE
  5
6C4B
  8
0
 62
     0
 10
19.463919773788501
 20
59.91102364800021
 30
0.0
 11
19.463919773788501
 21
59.91102364800021
 31
0.0
  0
LINE
  5
6C4C
  8
0
 62
     0
 10
21.045904514271399
 20
59.91389801735729
 30
0.0
 11
21.045904514271399
 21
59.91389801735729
 31
0.0
  0
LINE
  5
6C4D
  8
0
 62
     0
 10
21.413863986453791
 20
50.225170870415383
 30
0.0
 11
21.413863986453791
 21
50.225170870415383
 31
0.0
  0
LINE
  5
6C4E
  8
0
 62
     0
 10
21.1494456419254
 20
50.190359534950311
 30
0.0
 11
21.1494456419254
 21
50.190359534950311
 31
0.0
  0
LINE
  5
6C4F
  8
0
 62
     0
 10
20.459439676203679
 20
50.099518526212819
 30
0.0
 11
20.459439676203679
 21
50.099518526212819
 31
0.0
  0
LINE
  5
6C50
  8
0
 62
     0
 10
20.046443404749802
 20
50.045146535581637
 30
0.0
 11
20.046443404749802
 21
50.045146535581637
 31
0.0
  0
LINE
  5
6C51
  8
0
 62
     0
 10
21.358486242479671
 20
51.533168727349519
 30
0.0
 11
21.358486242479671
 21
51.533168727349519
 31
0.0
  0
LINE
  5
6C52
  8
0
 62
     0
 10
20.945489971025811
 20
51.478796736718337
 30
0.0
 11
20.945489971025811
 21
51.478796736718337
 31
0.0
  0
LINE
  5
6C53
  8
0
 62
     0
 10
20.68107162649742
 20
51.443985401253258
 30
0.0
 11
20.68107162649742
 21
51.443985401253258
 31
0.0
  0
LINE
  5
6C54
  8
0
 62
     0
 10
19.991065660775689
 20
51.35314439251578
 30
0.0
 11
19.991065660775689
 21
51.35314439251578
 31
0.0
  0
LINE
  5
6C55
  8
0
 62
     0
 10
19.578069389321829
 20
51.298772401884598
 30
0.0
 11
19.578069389321829
 21
51.298772401884598
 31
0.0
  0
LINE
  5
6C56
  8
0
 62
     0
 10
19.313651044793431
 20
51.263961066419512
 30
0.0
 11
19.313651044793431
 21
51.263961066419512
 31
0.0
  0
LINE
  5
6C57
  8
0
 62
     0
 10
21.580118192773401
 20
52.877635602389958
 30
0.0
 11
21.580118192773401
 21
52.877635602389958
 31
0.0
  0
LINE
  5
6C58
  8
0
 62
     0
 10
20.890112227051681
 20
52.786794593652502
 30
0.0
 11
20.890112227051681
 21
52.786794593652502
 31
0.0
  0
LINE
  5
6C59
  8
0
 62
     0
 10
20.477115955597831
 20
52.73242260302132
 30
0.0
 11
20.477115955597831
 21
52.73242260302132
 31
0.0
  0
LINE
  5
6C5A
  8
0
 62
     0
 10
20.212697611069441
 20
52.697611267556212
 30
0.0
 11
20.212697611069441
 21
52.697611267556212
 31
0.0
  0
LINE
  5
6C5B
  8
0
 62
     0
 10
19.52269164534772
 20
52.606770258818742
 30
0.0
 11
19.52269164534772
 21
52.606770258818742
 31
0.0
  0
LINE
  5
6C5C
  8
0
 62
     0
 10
19.10969537389385
 20
52.552398268187567
 30
0.0
 11
19.10969537389385
 21
52.552398268187567
 31
0.0
  0
LINE
  5
6C5D
  8
0
 62
     0
 10
18.845277029365441
 20
52.517586932722487
 30
0.0
 11
18.845277029365441
 21
52.517586932722487
 31
0.0
  0
LINE
  5
6C5E
  8
0
 62
     0
 10
21.542416728193452
 20
56.818537536132602
 30
0.0
 11
21.542416728193452
 21
56.818537536132602
 31
0.0
  0
LINE
  5
6C5F
  8
0
 62
     0
 10
20.852410762471742
 20
56.727696527395139
 30
0.0
 11
20.852410762471742
 21
56.727696527395139
 31
0.0
  0
LINE
  5
6C60
  8
0
 62
     0
 10
20.439414491017871
 20
56.673324536763957
 30
0.0
 11
20.439414491017871
 21
56.673324536763957
 31
0.0
  0
LINE
  5
6C61
  8
0
 62
     0
 10
20.174996146489448
 20
56.638513201298892
 30
0.0
 11
20.174996146489448
 21
56.638513201298892
 31
0.0
  0
LINE
  5
6C62
  8
0
 62
     0
 10
19.484990180767731
 20
56.5476721925614
 30
0.0
 11
19.484990180767731
 21
56.5476721925614
 31
0.0
  0
LINE
  5
6C63
  8
0
 62
     0
 10
19.071993909313878
 20
56.493300201930232
 30
0.0
 11
19.071993909313878
 21
56.493300201930232
 31
0.0
  0
LINE
  5
6C64
  8
0
 62
     0
 10
18.807575564785481
 20
56.458488866465139
 30
0.0
 11
18.807575564785481
 21
56.458488866465139
 31
0.0
  0
LINE
  5
6C65
  8
0
 62
     0
 10
21.33846105729387
 20
58.106974737900657
 30
0.0
 11
21.33846105729387
 21
58.106974737900657
 31
0.0
  0
LINE
  5
6C66
  8
0
 62
     0
 10
21.074042712765479
 20
58.072163402435592
 30
0.0
 11
21.074042712765479
 21
58.072163402435592
 31
0.0
  0
LINE
  5
6C67
  8
0
 62
     0
 10
20.384036747043758
 20
57.981322393698122
 30
0.0
 11
20.384036747043758
 21
57.981322393698122
 31
0.0
  0
LINE
  5
6C68
  8
0
 62
     0
 10
19.97104047558987
 20
57.92695040306694
 30
0.0
 11
19.97104047558987
 21
57.92695040306694
 31
0.0
  0
LINE
  5
6C69
  8
0
 62
     0
 10
19.706622131061469
 20
57.892139067601853
 30
0.0
 11
19.706622131061469
 21
57.892139067601853
 31
0.0
  0
LINE
  5
6C6A
  8
0
 62
     0
 10
19.01661616533978
 20
57.801298058864383
 30
0.0
 11
19.01661616533978
 21
57.801298058864383
 31
0.0
  0
LINE
  5
6C6B
  8
0
 62
     0
 10
21.283083313319761
 20
59.414972594834822
 30
0.0
 11
21.283083313319761
 21
59.414972594834822
 31
0.0
  0
LINE
  5
6C6C
  8
0
 62
     0
 10
20.870087041865879
 20
59.360600604203647
 30
0.0
 11
20.870087041865879
 21
59.360600604203647
 31
0.0
  0
LINE
  5
6C6D
  8
0
 62
     0
 10
20.605668697337489
 20
59.325789268738582
 30
0.0
 11
20.605668697337489
 21
59.325789268738582
 31
0.0
  0
LINE
  5
6C6E
  8
0
 62
     0
 10
19.915662731615761
 20
59.23494826000109
 30
0.0
 11
19.915662731615761
 21
59.23494826000109
 31
0.0
  0
LINE
  5
6C6F
  8
0
 62
     0
 10
19.50266646016189
 20
59.180576269369901
 30
0.0
 11
19.50266646016189
 21
59.180576269369901
 31
0.0
  0
LINE
  5
6C70
  8
0
 62
     0
 10
19.238248115633478
 20
59.1457649339048
 30
0.0
 11
19.238248115633478
 21
59.1457649339048
 31
0.0
  0
LINE
  5
6C71
  8
0
 62
     0
 10
21.58137877805677
 20
50.274231558912007
 30
0.0
 11
21.58137877805677
 21
50.274231558912007
 31
0.0
  0
LINE
  5
6C72
  8
0
 62
     0
 10
21.54937815213707
 20
51.253058033570703
 30
0.0
 11
21.54937815213707
 21
51.253058033570703
 31
0.0
  0
LINE
  5
6C73
  8
0
 62
     0
 10
20.864238207461561
 20
50.727331663478772
 30
0.0
 11
20.864238207461561
 21
50.727331663478772
 31
0.0
  0
LINE
  5
6C74
  8
0
 62
     0
 10
20.251642492222299
 20
50.2572704384554
 30
0.0
 11
20.251642492222299
 21
50.2572704384554
 31
0.0
  0
LINE
  5
6C75
  8
0
 62
     0
 10
21.517377526217409
 20
52.231884508229378
 30
0.0
 11
21.517377526217409
 21
52.231884508229378
 31
0.0
  0
LINE
  5
6C76
  8
0
 62
     0
 10
20.832237581541879
 20
51.706158138137447
 30
0.0
 11
20.832237581541879
 21
51.706158138137447
 31
0.0
  0
LINE
  5
6C77
  8
0
 62
     0
 10
20.21964186630262
 20
51.236096913114082
 30
0.0
 11
20.21964186630262
 21
51.236096913114082
 31
0.0
  0
LINE
  5
6C78
  8
0
 62
     0
 10
19.564728683892191
 20
50.733564353467379
 30
0.0
 11
19.564728683892191
 21
50.733564353467379
 31
0.0
  0
LINE
  5
6C79
  8
0
 62
     0
 10
18.87958873921669
 20
50.207837983375462
 30
0.0
 11
18.87958873921669
 21
50.207837983375462
 31
0.0
  0
LINE
  5
6C7A
  8
0
 62
     0
 10
21.48537690029773
 20
53.210710982888067
 30
0.0
 11
21.48537690029773
 21
53.210710982888067
 31
0.0
  0
LINE
  5
6C7B
  8
0
 62
     0
 10
20.8002369556222
 20
52.684984612796129
 30
0.0
 11
20.8002369556222
 21
52.684984612796129
 31
0.0
  0
LINE
  5
6C7C
  8
0
 62
     0
 10
20.187641240382941
 20
52.214923387772757
 30
0.0
 11
20.187641240382941
 21
52.214923387772757
 31
0.0
  0
LINE
  5
6C7D
  8
0
 62
     0
 10
19.53272805797253
 20
51.712390828126068
 30
0.0
 11
19.53272805797253
 21
51.712390828126068
 31
0.0
  0
LINE
  5
6C7E
  8
0
 62
     0
 10
18.847588113297
 20
51.18666445803413
 30
0.0
 11
18.847588113297
 21
51.18666445803413
 31
0.0
  0
LINE
  5
6C7F
  8
0
 62
     0
 10
20.768236329702521
 20
53.663811087454818
 30
0.0
 11
20.768236329702521
 21
53.663811087454818
 31
0.0
  0
LINE
  5
6C80
  8
0
 62
     0
 10
20.155640614463241
 20
53.193749862431432
 30
0.0
 11
20.155640614463241
 21
53.193749862431432
 31
0.0
  0
LINE
  5
6C81
  8
0
 62
     0
 10
19.50072743205283
 20
52.69121730278475
 30
0.0
 11
19.50072743205283
 21
52.69121730278475
 31
0.0
  0
LINE
  5
6C82
  8
0
 62
     0
 10
18.815587487377329
 20
52.165490932692819
 30
0.0
 11
18.815587487377329
 21
52.165490932692819
 31
0.0
  0
LINE
  5
6C83
  8
0
 62
     0
 10
19.468726806133159
 20
53.670043777443432
 30
0.0
 11
19.468726806133159
 21
53.670043777443432
 31
0.0
  0
LINE
  5
6C84
  8
0
 62
     0
 10
18.783586861457639
 20
53.144317407351501
 30
0.0
 11
18.783586861457639
 21
53.144317407351501
 31
0.0
  0
LINE
  5
6C85
  8
0
 62
     0
 10
21.35737439661899
 20
57.126016881522808
 30
0.0
 11
21.35737439661899
 21
57.126016881522808
 31
0.0
  0
LINE
  5
6C86
  8
0
 62
     0
 10
20.672234451943481
 20
56.600290511430849
 30
0.0
 11
20.672234451943481
 21
56.600290511430849
 31
0.0
  0
LINE
  5
6C87
  8
0
 62
     0
 10
21.325373770699311
 20
58.10484335618149
 30
0.0
 11
21.325373770699311
 21
58.10484335618149
 31
0.0
  0
LINE
  5
6C88
  8
0
 62
     0
 10
20.640233826023799
 20
57.579116986089574
 30
0.0
 11
20.640233826023799
 21
57.579116986089574
 31
0.0
  0
LINE
  5
6C89
  8
0
 62
     0
 10
20.02763811078453
 20
57.10905576106618
 30
0.0
 11
20.02763811078453
 21
57.10905576106618
 31
0.0
  0
LINE
  5
6C8A
  8
0
 62
     0
 10
19.372724928374119
 20
56.606523201419499
 30
0.0
 11
19.372724928374119
 21
56.606523201419499
 31
0.0
  0
LINE
  5
6C8B
  8
0
 62
     0
 10
21.29337314477965
 20
59.083669830840179
 30
0.0
 11
21.29337314477965
 21
59.083669830840179
 31
0.0
  0
LINE
  5
6C8C
  8
0
 62
     0
 10
20.608233200104142
 20
58.557943460748263
 30
0.0
 11
20.608233200104142
 21
58.557943460748263
 31
0.0
  0
LINE
  5
6C8D
  8
0
 62
     0
 10
19.99563748486484
 20
58.087882235724877
 30
0.0
 11
19.99563748486484
 21
58.087882235724877
 31
0.0
  0
LINE
  5
6C8E
  8
0
 62
     0
 10
19.340724302454451
 20
57.585349676078167
 30
0.0
 11
19.340724302454451
 21
57.585349676078167
 31
0.0
  0
LINE
  5
6C8F
  8
0
 62
     0
 10
18.65558435777892
 20
57.059623305986271
 30
0.0
 11
18.65558435777892
 21
57.059623305986271
 31
0.0
  0
LINE
  5
6C90
  8
0
 62
     0
 10
20.576232574184441
 20
59.53676993540693
 30
0.0
 11
20.576232574184441
 21
59.53676993540693
 31
0.0
  0
LINE
  5
6C91
  8
0
 62
     0
 10
19.963636858945161
 20
59.066708710383551
 30
0.0
 11
19.963636858945161
 21
59.066708710383551
 31
0.0
  0
LINE
  5
6C92
  8
0
 62
     0
 10
19.308723676534751
 20
58.564176150736841
 30
0.0
 11
19.308723676534751
 21
58.564176150736841
 31
0.0
  0
LINE
  5
6C93
  8
0
 62
     0
 10
19.276723050615072
 20
59.543002625395538
 30
0.0
 11
19.276723050615072
 21
59.543002625395538
 31
0.0
  0
ENDBLK
  5
6C94
  8
0
  0
BLOCK
  8
0
  2
*X1
 70
     1
 10
0.0
 20
0.0
 30
0.0
  3
*X1
  1

  0
LINE
  5
6C97
  8
0
 62
     0
 10
21.647063048253521
 20
74.707188219205548
 30
0.0
 11
21.457666186211689
 21
75.035233207056095
 31
0.0
  0
LINE
  5
6C98
  8
0
 62
     0
 10
21.647063048253521
 20
73.119688219205557
 30
0.0
 11
20.541122633873162
 21
75.035233207056095
 31
0.0
  0
LINE
  5
6C99
  8
0
 62
     0
 10
21.647063048253521
 20
71.532188219205551
 30
0.0
 11
19.624579081534641
 21
75.035233207056095
 31
0.0
  0
LINE
  5
6C9A
  8
0
 62
     0
 10
20.8102649863471
 20
71.394064978102662
 30
0.0
 11
18.708035529196081
 21
75.035233207056095
 31
0.0
  0
LINE
  5
6C9B
  8
0
 62
     0
 10
21.647063048253521
 20
69.944688219205517
 30
0.0
 11
21.64383455931625
 21
69.950280126076592
 31
0.0
  0
LINE
  5
6C9C
  8
0
 62
     0
 10
19.824710484482392
 20
71.513595448960515
 30
0.0
 11
18.64706304825355
 21
73.553340641912129
 31
0.0
  0
LINE
  5
6C9D
  8
0
 62
     0
 10
21.647063048253521
 20
68.357188219205526
 30
0.0
 11
21.254573732673151
 21
69.036999655218693
 31
0.0
  0
LINE
  5
6C9E
  8
0
 62
     0
 10
19.12180623788036
 20
71.143561316931198
 30
0.0
 11
18.647063048253521
 21
71.96584064191218
 31
0.0
  0
LINE
  5
6C9F
  8
0
 62
     0
 10
21.647063048253521
 20
66.769688219205548
 30
0.0
 11
20.582662650767379
 21
68.613283787248037
 31
0.0
  0
LINE
  5
6CA0
  8
0
 62
     0
 10
18.67400708694943
 20
70.331672197929777
 30
0.0
 11
18.64706304825355
 21
70.37834064191216
 31
0.0
  0
LINE
  5
6CA1
  8
0
 62
     0
 10
21.647063048253521
 20
65.182188219205528
 30
0.0
 11
19.655646473190519
 21
68.631422906249455
 31
0.0
  0
LINE
  5
6CA2
  8
0
 62
     0
 10
20.815364011738239
 20
65.035233207056095
 30
0.0
 11
18.647063048253521
 21
68.790840641912155
 31
0.0
  0
LINE
  5
6CA3
  8
0
 62
     0
 10
19.898820459399701
 20
65.035233207056095
 30
0.0
 11
18.647063048253521
 21
67.203340641912149
 31
0.0
  0
LINE
  5
6CA4
  8
0
 62
     0
 10
18.982276907061149
 20
65.035233207056123
 30
0.0
 11
18.647063048253521
 21
65.615840641912129
 31
0.0
  0
LINE
  5
6CA5
  8
0
 62
     0
 10
20.762465980198609
 20
65.035233207056081
 30
0.0
 11
21.6470630482535
 21
66.567400273153638
 31
0.0
  0
LINE
  5
6CA6
  8
0
 62
     0
 10
19.845922427860071
 20
65.035233207056081
 30
0.0
 11
21.6470630482535
 21
68.154900273153615
 31
0.0
  0
LINE
  5
6CA7
  8
0
 62
     0
 10
21.59257542519428
 20
69.648024941631391
 30
0.0
 11
21.6470630482535
 21
69.742400273153649
 31
0.0
  0
LINE
  5
6CA8
  8
0
 62
     0
 10
18.929378875521561
 20
65.035233207056095
 30
0.0
 11
21.21676372231676
 21
68.997099978168535
 31
0.0
  0
LINE
  5
6CA9
  8
0
 62
     0
 10
21.391149451710088
 20
70.886644921592776
 30
0.0
 11
21.6470630482535
 21
71.32990027315364
 31
0.0
  0
LINE
  5
6CAA
  8
0
 62
     0
 10
18.647063048253511
 20
66.133747850446994
 30
0.0
 11
20.04337436729314
 21
68.552229998207153
 31
0.0
  0
LINE
  5
6CAB
  8
0
 62
     0
 10
20.77679513904901
 20
71.410052038214673
 30
0.0
 11
21.647063048253511
 21
72.917400273153632
 31
0.0
  0
LINE
  5
6CAC
  8
0
 62
     0
 10
18.647063048253511
 20
67.721247850447
 30
0.0
 11
19.28291335144646
 21
68.822572881585259
 31
0.0
  0
LINE
  5
6CAD
  8
0
 62
     0
 10
19.931256776958129
 20
71.533036635324706
 30
0.0
 11
21.6470630482535
 21
74.504900273153623
 31
0.0
  0
LINE
  5
6CAE
  8
0
 62
     0
 10
18.647063048253511
 20
69.308747850447006
 30
0.0
 11
18.753636385029541
 21
69.493338284475215
 31
0.0
  0
LINE
  5
6CAF
  8
0
 62
     0
 10
18.647063048253511
 20
70.896247850446997
 30
0.0
 11
21.036707358063669
 21
75.035233207056081
 31
0.0
  0
LINE
  5
6CB0
  8
0
 62
     0
 10
18.647063048253511
 20
72.483747850447017
 30
0.0
 11
20.120163805725159
 21
75.035233207056095
 31
0.0
  0
LINE
  5
6CB1
  8
0
 62
     0
 10
18.647063048253511
 20
74.071247850446994
 30
0.0
 11
19.203620253386632
 21
75.035233207056081
 31
0.0
  0
LINE
  5
6CB2
  8
0
 62
     0
 10
18.647063048253511
 20
65.081044246179573
 30
0.0
 11
21.6470630482535
 21
65.081044246179573
 31
0.0
  0
LINE
  5
6CB3
  8
0
 62
     0
 10
18.647063048253511
 20
65.87479424617959
 30
0.0
 11
21.6470630482535
 21
65.87479424617959
 31
0.0
  0
LINE
  5
6CB4
  8
0
 62
     0
 10
18.647063048253511
 20
66.668544246179579
 30
0.0
 11
21.6470630482535
 21
66.668544246179579
 31
0.0
  0
LINE
  5
6CB5
  8
0
 62
     0
 10
18.647063048253511
 20
67.462294246179582
 30
0.0
 11
21.6470630482535
 21
67.462294246179582
 31
0.0
  0
LINE
  5
6CB6
  8
0
 62
     0
 10
18.647063048253511
 20
68.256044246179584
 30
0.0
 11
21.6470630482535
 21
68.256044246179584
 31
0.0
  0
LINE
  5
6CB7
  8
0
 62
     0
 10
21.266126635656349
 20
69.049794246179587
 30
0.0
 11
21.6470630482535
 21
69.049794246179587
 31
0.0
  0
LINE
  5
6CB8
  8
0
 62
     0
 10
18.647063048253511
 20
69.049794246179587
 30
0.0
 11
19.02799946085069
 21
69.049794246179587
 31
0.0
  0
LINE
  5
6CB9
  8
0
 62
     0
 10
21.632975206410809
 20
69.84354424617959
 30
0.0
 11
21.6470630482535
 21
69.84354424617959
 31
0.0
  0
LINE
  5
6CBA
  8
0
 62
     0
 10
18.647063048253511
 20
69.84354424617959
 30
0.0
 11
18.661150890096199
 21
69.84354424617959
 31
0.0
  0
LINE
  5
6CBB
  8
0
 62
     0
 10
21.526732735486121
 20
70.637294246179579
 30
0.0
 11
21.6470630482535
 21
70.637294246179579
 31
0.0
  0
LINE
  5
6CBC
  8
0
 62
     0
 10
18.647063048253511
 20
70.637294246179579
 30
0.0
 11
18.767393361020918
 21
70.637294246179579
 31
0.0
  0
LINE
  5
6CBD
  8
0
 62
     0
 10
20.729269047000798
 20
71.431044246179582
 30
0.0
 11
21.6470630482535
 21
71.431044246179582
 31
0.0
  0
LINE
  5
6CBE
  8
0
 62
     0
 10
18.647063048253511
 20
71.431044246179582
 30
0.0
 11
19.56485704950623
 21
71.431044246179582
 31
0.0
  0
LINE
  5
6CBF
  8
0
 62
     0
 10
18.647063048253511
 20
72.224794246179584
 30
0.0
 11
21.6470630482535
 21
72.224794246179584
 31
0.0
  0
LINE
  5
6CC0
  8
0
 62
     0
 10
18.647063048253511
 20
73.018544246179587
 30
0.0
 11
21.6470630482535
 21
73.018544246179587
 31
0.0
  0
LINE
  5
6CC1
  8
0
 62
     0
 10
18.647063048253511
 20
73.81229424617959
 30
0.0
 11
21.6470630482535
 21
73.81229424617959
 31
0.0
  0
LINE
  5
6CC2
  8
0
 62
     0
 10
18.647063048253511
 20
74.606044246179579
 30
0.0
 11
21.6470630482535
 21
74.606044246179579
 31
0.0
  0
ENDBLK
  5
6CC3
  8
0
  0
ENDSEC
  0
SECTION
  2
ENTITIES
  0
LINE
  5
6CC4
  8
0
 10
20.0
 20
679.14284323383265
 30
0.0
 11
177.0
 21
679.14284323383265
 31
0.0
  0
TEXT
  5
6CC5
  8
0
 10
119.40000082807239
 20
667.64284353417497
 30
0.0
 40
3.0
  1
記　　　事
 72
     4
 11
128.00000082807239
 21
669.14284353417509
 31
0.0
  0
TEXT
  5
6CC6
  8
0
 10
54.956175280590472
 20
668.14284323383276
 30
0.0
 40
3.0
  1
地質区分
 72
     4
 11
61.756175280590469
 21
669.64284323383265
 31
0.0
  0
TEXT
  5
6CC7
  8
0
 10
15.0
 20
679.8605423661503
 30
0.0
 40
3.0
  1
標　　尺
  7
STANDATDT
 72
     4
 11
15.0
 21
672.96054236615032
 31
0.0
  0
TEXT
  5
6CC8
  8
0
 10
25.0
 20
676.24284323383267
 30
0.0
 40
3.0
  1
標　高
  7
STANDATDT
 72
     4
 11
25.0
 21
671.14284323383265
 31
0.0
  0
TEXT
  5
6CC9
  8
0
 10
45.0
 20
676.54284323383274
 30
0.0
 40
3.0
  1
柱 状 図
  7
STANDATDT
 72
     4
 11
45.0
 21
669.64284323383265
 31
0.0
  0
TEXT
  5
6CCA
  8
0
 10
35.0
 20
676.24284323383267
 30
0.0
 40
3.0
  1
深　度
  7
STANDATDT
 72
     4
 11
35.0
 21
671.14284323383265
 31
0.0
  0
LINE
  5
6CCB
  8
0
 10
30.0
 20
660.14284323383276
 30
0.0
 11
30.0
 21
679.14284323383265
 31
0.0
  0
LINE
  5
6CCC
  8
0
 10
40.0
 20
660.14284323383276
 30
0.0
 11
40.0
 21
679.14284323383265
 31
0.0
  0
LINE
  5
6CCD
  8
0
 10
20.0
 20
660.14284323383276
 30
0.0
 11
20.0
 21
685.14284323383276
 31
0.0
  0
LINE
  5
6CCE
  8
0
 10
10.0
 20
559.14284323383265
 30
0.0
 11
13.0
 21
559.14284323383265
 31
0.0
  0
LINE
  5
6CCF
  8
0
 10
10.0
 20
563.14284323383265
 30
0.0
 11
11.0
 21
563.14284323383265
 31
0.0
  0
LINE
  5
6CD0
  8
0
 10
10.0
 20
562.14284323383265
 30
0.0
 11
11.0
 21
562.14284323383265
 31
0.0
  0
LINE
  5
6CD1
  8
0
 10
10.0
 20
561.14284323383265
 30
0.0
 11
11.0
 21
561.14284323383265
 31
0.0
  0
LINE
  5
6CD2
  8
0
 10
10.0
 20
560.14284323383276
 30
0.0
 11
11.0
 21
560.14284323383276
 31
0.0
  0
LINE
  5
6CD3
  8
0
 10
10.0
 20
569.14284323383265
 30
0.0
 11
13.0
 21
569.14284323383265
 31
0.0
  0
LINE
  5
6CD4
  8
0
 10
10.0
 20
564.14284323383276
 30
0.0
 11
12.0
 21
564.14284323383276
 31
0.0
  0
LINE
  5
6CD5
  8
0
 10
10.0
 20
571.14284323383265
 30
0.0
 11
11.0
 21
571.14284323383265
 31
0.0
  0
LINE
  5
6CD6
  8
0
 10
10.0
 20
570.14284323383265
 30
0.0
 11
11.0
 21
570.14284323383265
 31
0.0
  0
LINE
  5
6CD7
  8
0
 10
10.0
 20
565.14284323383265
 30
0.0
 11
11.0
 21
565.14284323383265
 31
0.0
  0
LINE
  5
6CD8
  8
0
 10
10.0
 20
566.14284323383265
 30
0.0
 11
11.0
 21
566.14284323383265
 31
0.0
  0
LINE
  5
6CD9
  8
0
 10
10.0
 20
567.14284323383265
 30
0.0
 11
11.0
 21
567.14284323383265
 31
0.0
  0
LINE
  5
6CDA
  8
0
 10
10.0
 20
568.14284323383276
 30
0.0
 11
11.0
 21
568.14284323383276
 31
0.0
  0
LINE
  5
6CDB
  8
0
 10
10.0
 20
579.14284323383265
 30
0.0
 11
13.0
 21
579.14284323383265
 31
0.0
  0
LINE
  5
6CDC
  8
0
 10
10.0
 20
574.14284323383265
 30
0.0
 11
12.0
 21
574.14284323383265
 31
0.0
  0
LINE
  5
6CDD
  8
0
 10
10.0
 20
580.14284323383265
 30
0.0
 11
11.0
 21
580.14284323383265
 31
0.0
  0
LINE
  5
6CDE
  8
0
 10
10.0
 20
573.14284323383265
 30
0.0
 11
11.0
 21
573.14284323383265
 31
0.0
  0
LINE
  5
6CDF
  8
0
 10
10.0
 20
572.14284323383265
 30
0.0
 11
11.0
 21
572.14284323383265
 31
0.0
  0
LINE
  5
6CE0
  8
0
 10
10.0
 20
575.14284323383265
 30
0.0
 11
11.0
 21
575.14284323383265
 31
0.0
  0
LINE
  5
6CE1
  8
0
 10
10.0
 20
576.14284323383265
 30
0.0
 11
11.0
 21
576.14284323383265
 31
0.0
  0
LINE
  5
6CE2
  8
0
 10
10.0
 20
577.14284323383276
 30
0.0
 11
11.0
 21
577.14284323383276
 31
0.0
  0
LINE
  5
6CE3
  8
0
 10
10.0
 20
578.14284323383265
 30
0.0
 11
11.0
 21
578.14284323383265
 31
0.0
  0
LINE
  5
6CE4
  8
0
 10
10.0
 20
584.14284323383265
 30
0.0
 11
12.0
 21
584.14284323383265
 31
0.0
  0
LINE
  5
6CE5
  8
0
 10
10.0
 20
583.14284323383265
 30
0.0
 11
11.0
 21
583.14284323383265
 31
0.0
  0
LINE
  5
6CE6
  8
0
 10
10.0
 20
585.14284323383276
 30
0.0
 11
11.0
 21
585.14284323383276
 31
0.0
  0
LINE
  5
6CE7
  8
0
 10
10.0
 20
586.14284323383265
 30
0.0
 11
11.0
 21
586.14284323383265
 31
0.0
  0
LINE
  5
6CE8
  8
0
 10
10.0
 20
587.14284323383265
 30
0.0
 11
11.0
 21
587.14284323383265
 31
0.0
  0
LINE
  5
6CE9
  8
0
 10
10.0
 20
588.14284323383265
 30
0.0
 11
11.0
 21
588.14284323383265
 31
0.0
  0
LINE
  5
6CEA
  8
0
 10
10.0
 20
582.14284323383265
 30
0.0
 11
11.0
 21
582.14284323383265
 31
0.0
  0
LINE
  5
6CEB
  8
0
 10
10.0
 20
581.14284323383276
 30
0.0
 11
11.0
 21
581.14284323383276
 31
0.0
  0
LINE
  5
6CEC
  8
0
 10
10.0
 20
589.14284323383276
 30
0.0
 11
13.0
 21
589.14284323383276
 31
0.0
  0
LINE
  5
6CED
  8
0
 10
10.0
 20
594.14284323383265
 30
0.0
 11
12.0
 21
594.14284323383265
 31
0.0
  0
LINE
  5
6CEE
  8
0
 10
10.0
 20
595.14284323383265
 30
0.0
 11
11.0
 21
595.14284323383265
 31
0.0
  0
LINE
  5
6CEF
  8
0
 10
10.0
 20
596.14284323383265
 30
0.0
 11
11.0
 21
596.14284323383265
 31
0.0
  0
LINE
  5
6CF0
  8
0
 10
10.0
 20
593.14284323383276
 30
0.0
 11
11.0
 21
593.14284323383276
 31
0.0
  0
LINE
  5
6CF1
  8
0
 10
10.0
 20
592.14284323383265
 30
0.0
 11
11.0
 21
592.14284323383265
 31
0.0
  0
LINE
  5
6CF2
  8
0
 10
10.0
 20
591.14284323383265
 30
0.0
 11
11.0
 21
591.14284323383265
 31
0.0
  0
LINE
  5
6CF3
  8
0
 10
10.0
 20
590.14284323383265
 30
0.0
 11
11.0
 21
590.14284323383265
 31
0.0
  0
LINE
  5
6CF4
  8
0
 10
10.0
 20
599.14284323383265
 30
0.0
 11
13.0
 21
599.14284323383265
 31
0.0
  0
LINE
  5
6CF5
  8
0
 10
10.0
 20
604.14284323383265
 30
0.0
 11
12.0
 21
604.14284323383265
 31
0.0
  0
LINE
  5
6CF6
  8
0
 10
10.0
 20
603.14284323383265
 30
0.0
 11
11.0
 21
603.14284323383265
 31
0.0
  0
LINE
  5
6CF7
  8
0
 10
10.0
 20
602.14284323383276
 30
0.0
 11
11.0
 21
602.14284323383276
 31
0.0
  0
LINE
  5
6CF8
  8
0
 10
10.0
 20
601.14284323383265
 30
0.0
 11
11.0
 21
601.14284323383265
 31
0.0
  0
LINE
  5
6CF9
  8
0
 10
10.0
 20
600.14284323383265
 30
0.0
 11
11.0
 21
600.14284323383265
 31
0.0
  0
LINE
  5
6CFA
  8
0
 10
10.0
 20
597.14284323383265
 30
0.0
 11
11.0
 21
597.14284323383265
 31
0.0
  0
LINE
  5
6CFB
  8
0
 10
10.0
 20
598.14284323383265
 30
0.0
 11
11.0
 21
598.14284323383265
 31
0.0
  0
TEXT
  5
6CFC
  8
0
 10
32.25
 20
661.97617656716614
 30
0.0
 40
2.5
  1
(ｍ)
 72
     1
 11
35.0
 21
661.64284323383265
 31
0.0
 73
     1
  0
LINE
  5
6CFD
  8
0
 10
10.0
 20
609.14284323383265
 30
0.0
 11
13.0
 21
609.14284323383265
 31
0.0
  0
LINE
  5
6CFE
  8
0
 10
10.0
 20
612.14284323383265
 30
0.0
 11
11.0
 21
612.14284323383265
 31
0.0
  0
LINE
  5
6CFF
  8
0
 10
10.0
 20
611.14284323383265
 30
0.0
 11
11.0
 21
611.14284323383265
 31
0.0
  0
LINE
  5
6D00
  8
0
 10
10.0
 20
610.14284323383276
 30
0.0
 11
11.0
 21
610.14284323383276
 31
0.0
  0
LINE
  5
6D01
  8
0
 10
10.0
 20
605.14284323383265
 30
0.0
 11
11.0
 21
605.14284323383265
 31
0.0
  0
LINE
  5
6D02
  8
0
 10
10.0
 20
606.14284323383276
 30
0.0
 11
11.0
 21
606.14284323383276
 31
0.0
  0
LINE
  5
6D03
  8
0
 10
10.0
 20
607.14284323383265
 30
0.0
 11
11.0
 21
607.14284323383265
 31
0.0
  0
LINE
  5
6D04
  8
0
 10
10.0
 20
608.14284323383265
 30
0.0
 11
11.0
 21
608.14284323383265
 31
0.0
  0
LINE
  5
6D05
  8
0
 10
10.0
 20
619.14284323383265
 30
0.0
 11
13.0
 21
619.14284323383265
 31
0.0
  0
LINE
  5
6D06
  8
0
 10
10.0
 20
614.14284323383276
 30
0.0
 11
12.0
 21
614.14284323383276
 31
0.0
  0
LINE
  5
6D07
  8
0
 10
10.0
 20
621.14284323383265
 30
0.0
 11
11.0
 21
621.14284323383265
 31
0.0
  0
LINE
  5
6D08
  8
0
 10
10.0
 20
620.14284323383265
 30
0.0
 11
11.0
 21
620.14284323383265
 31
0.0
  0
LINE
  5
6D09
  8
0
 10
10.0
 20
615.14284323383265
 30
0.0
 11
11.0
 21
615.14284323383265
 31
0.0
  0
LINE
  5
6D0A
  8
0
 10
10.0
 20
616.14284323383265
 30
0.0
 11
11.0
 21
616.14284323383265
 31
0.0
  0
LINE
  5
6D0B
  8
0
 10
10.0
 20
617.14284323383265
 30
0.0
 11
11.0
 21
617.14284323383265
 31
0.0
  0
LINE
  5
6D0C
  8
0
 10
10.0
 20
618.14284323383276
 30
0.0
 11
11.0
 21
618.14284323383276
 31
0.0
  0
LINE
  5
6D0D
  8
0
 10
10.0
 20
613.14284323383265
 30
0.0
 11
11.0
 21
613.14284323383265
 31
0.0
  0
LINE
  5
6D0E
  8
0
 10
10.0
 20
629.14284323383265
 30
0.0
 11
13.0
 21
629.14284323383265
 31
0.0
  0
LINE
  5
6D0F
  8
0
 10
10.0
 20
624.14284323383265
 30
0.0
 11
12.0
 21
624.14284323383265
 31
0.0
  0
LINE
  5
6D10
  8
0
 10
10.0
 20
626.14284323383265
 30
0.0
 11
11.0
 21
626.14284323383265
 31
0.0
  0
LINE
  5
6D11
  8
0
 10
10.0
 20
627.14284323383276
 30
0.0
 11
11.0
 21
627.14284323383276
 31
0.0
  0
LINE
  5
6D12
  8
0
 10
10.0
 20
628.14284323383265
 30
0.0
 11
11.0
 21
628.14284323383265
 31
0.0
  0
LINE
  5
6D13
  8
0
 10
10.0
 20
623.14284323383265
 30
0.0
 11
11.0
 21
623.14284323383265
 31
0.0
  0
LINE
  5
6D14
  8
0
 10
10.0
 20
622.14284323383276
 30
0.0
 11
11.0
 21
622.14284323383276
 31
0.0
  0
LINE
  5
6D15
  8
0
 10
10.0
 20
625.14284323383265
 30
0.0
 11
11.0
 21
625.14284323383265
 31
0.0
  0
LINE
  5
6D16
  8
0
 10
10.0
 20
634.14284323383265
 30
0.0
 11
12.0
 21
634.14284323383265
 31
0.0
  0
LINE
  5
6D17
  8
0
 10
10.0
 20
637.14284323383265
 30
0.0
 11
11.0
 21
637.14284323383265
 31
0.0
  0
LINE
  5
6D18
  8
0
 10
10.0
 20
633.14284323383265
 30
0.0
 11
11.0
 21
633.14284323383265
 31
0.0
  0
LINE
  5
6D19
  8
0
 10
10.0
 20
632.14284323383265
 30
0.0
 11
11.0
 21
632.14284323383265
 31
0.0
  0
LINE
  5
6D1A
  8
0
 10
10.0
 20
631.14284323383276
 30
0.0
 11
11.0
 21
631.14284323383276
 31
0.0
  0
LINE
  5
6D1B
  8
0
 10
10.0
 20
630.14284323383265
 30
0.0
 11
11.0
 21
630.14284323383265
 31
0.0
  0
LINE
  5
6D1C
  8
0
 10
10.0
 20
635.14284323383276
 30
0.0
 11
11.0
 21
635.14284323383276
 31
0.0
  0
LINE
  5
6D1D
  8
0
 10
10.0
 20
636.14284323383265
 30
0.0
 11
11.0
 21
636.14284323383265
 31
0.0
  0
LINE
  5
6D1E
  8
0
 10
10.0
 20
639.14284323383276
 30
0.0
 11
13.0
 21
639.14284323383276
 31
0.0
  0
LINE
  5
6D1F
  8
0
 10
10.0
 20
644.14284323383265
 30
0.0
 11
12.0
 21
644.14284323383265
 31
0.0
  0
LINE
  5
6D20
  8
0
 10
10.0
 20
643.14284323383276
 30
0.0
 11
11.0
 21
643.14284323383276
 31
0.0
  0
LINE
  5
6D21
  8
0
 10
10.0
 20
642.14284323383265
 30
0.0
 11
11.0
 21
642.14284323383265
 31
0.0
  0
LINE
  5
6D22
  8
0
 10
10.0
 20
641.14284323383265
 30
0.0
 11
11.0
 21
641.14284323383265
 31
0.0
  0
LINE
  5
6D23
  8
0
 10
10.0
 20
640.14284323383265
 30
0.0
 11
11.0
 21
640.14284323383265
 31
0.0
  0
LINE
  5
6D24
  8
0
 10
10.0
 20
645.14284323383265
 30
0.0
 11
11.0
 21
645.14284323383265
 31
0.0
  0
LINE
  5
6D25
  8
0
 10
10.0
 20
638.14284323383265
 30
0.0
 11
11.0
 21
638.14284323383265
 31
0.0
  0
LINE
  5
6D26
  8
0
 10
10.0
 20
649.14284323383265
 30
0.0
 11
13.0
 21
649.14284323383265
 31
0.0
  0
LINE
  5
6D27
  8
0
 10
10.0
 20
650.14284323383265
 30
0.0
 11
11.0
 21
650.14284323383265
 31
0.0
  0
LINE
  5
6D28
  8
0
 10
10.0
 20
651.14284323383265
 30
0.0
 11
11.0
 21
651.14284323383265
 31
0.0
  0
LINE
  5
6D29
  8
0
 10
10.0
 20
652.14284323383276
 30
0.0
 11
11.0
 21
652.14284323383276
 31
0.0
  0
LINE
  5
6D2A
  8
0
 10
10.0
 20
653.14284323383265
 30
0.0
 11
11.0
 21
653.14284323383265
 31
0.0
  0
LINE
  5
6D2B
  8
0
 10
10.0
 20
647.14284323383276
 30
0.0
 11
11.0
 21
647.14284323383276
 31
0.0
  0
LINE
  5
6D2C
  8
0
 10
10.0
 20
648.14284323383265
 30
0.0
 11
11.0
 21
648.14284323383265
 31
0.0
  0
LINE
  5
6D2D
  8
0
 10
10.0
 20
646.14284323383265
 30
0.0
 11
11.0
 21
646.14284323383265
 31
0.0
  0
TEXT
  5
6D2E
  8
0
 10
12.25
 20
661.97617656716614
 30
0.0
 40
2.5
  1
(ｍ)
 72
     1
 11
15.0
 21
661.64284323383265
 31
0.0
 73
     1
  0
LINE
  5
6D2F
  8
0
 10
10.0
 20
654.14284323383265
 30
0.0
 11
12.0
 21
654.14284323383265
 31
0.0
  0
LINE
  5
6D30
  8
0
 10
10.0
 20
658.14284323383265
 30
0.0
 11
11.0
 21
658.14284323383265
 31
0.0
  0
LINE
  5
6D31
  8
0
 10
10.0
 20
657.14284323383265
 30
0.0
 11
11.0
 21
657.14284323383265
 31
0.0
  0
LINE
  5
6D32
  8
0
 10
10.0
 20
656.14284323383276
 30
0.0
 11
11.0
 21
656.14284323383276
 31
0.0
  0
LINE
  5
6D33
  8
0
 10
10.0
 20
655.14284323383265
 30
0.0
 11
11.0
 21
655.14284323383265
 31
0.0
  0
TEXT
  5
6D34
  8
0
 10
22.25
 20
661.97617656716614
 30
0.0
 40
2.5
  1
(ｍ)
 72
     1
 11
25.0
 21
661.64284323383265
 31
0.0
 73
     1
  0
TEXT
  5
6D35
  8
0
 10
78.0
 20
676.54284323383274
 30
0.0
 40
3.0
  1
色　　調
  7
STANDATDT
 72
     4
 11
78.0
 21
669.64284323383265
 31
0.0
  0
TEXT
  5
6D36
  8
0
 10
87.0
 20
676.64284323383276
 30
0.0
 40
3.0
  1
硬　　軟
  7
STANDATDT
 72
     4
 11
87.0
 21
669.64284323383265
 31
0.0
  0
LINE
  5
6D37
  8
0
 10
106.0000008280724
 20
660.14284353417509
 30
0.0
 11
106.0000008280724
 21
679.14284353417497
 31
0.0
  0
LINE
  5
6D38
  8
0
 10
83.0
 20
660.14284323383276
 30
0.0
 11
83.0
 21
679.14284323383265
 31
0.0
  0
LINE
  5
6D39
  8
0
 10
73.0
 20
660.14284323383276
 30
0.0
 11
73.0
 21
679.14284323383265
 31
0.0
  0
TEXT
  5
6D3A
  8
0
 10
65.699999999999903
 20
680.54284323383274
 30
0.0
 40
3.0
  1
地　　　　　　　　　　　　　　　　　質
 72
     1
 11
99.499999999999901
 21
680.14284323383265
 31
0.0
 73
     1
  0
LINE
  5
6D3B
  8
0
 10
177.0
 20
679.14284323383265
 30
0.0
 11
251.0
 21
679.14284323383265
 31
0.0
  0
LINE
  5
6D3C
  8
0
 10
176.0
 20
660.14284323383276
 30
0.0
 11
176.0
 21
685.14284323383276
 31
0.0
  0
LINE
  5
6D3D
  8
0
 10
177.0
 20
660.14284323383276
 30
0.0
 11
177.0
 21
685.14284323383276
 31
0.0
  0
LINE
  5
6D3E
  8
0
 10
226.0
 20
660.14284323383276
 30
0.0
 11
225.9999999999998
 21
674.14284323383265
 31
0.0
  0
LINE
  5
6D3F
  8
0
 10
176.0
 20
660.14284323383276
 30
0.0
 11
176.0
 21
679.14284323383265
 31
0.0
  0
LINE
  5
6D40
  8
0
 10
213.0
 20
674.14258316006942
 30
0.0
 11
213.0
 21
660.14258316006953
 31
0.0
  0
LINE
  5
6D41
  8
0
 10
251.0
 20
660.14284323383276
 30
0.0
 11
251.0
 21
685.14284323383276
 31
0.0
  0
LINE
  5
6D42
  8
0
 10
261.0
 20
660.14284323383276
 30
0.0
 11
261.0
 21
685.14284323383276
 31
0.0
  0
TEXT
  5
6D43
  8
0
 10
16.99708977370635
 20
608.14284323383265
 30
0.0
 40
2.0
  1
5
 72
     2
 11
18.330423107039682
 21
609.14284323383265
 31
0.0
 73
     2
  0
TEXT
  5
6D44
  8
0
 10
16.99708977370635
 20
618.14284323383276
 30
0.0
 40
2.0
  1
4
 72
     2
 11
18.330423107039682
 21
619.14284323383265
 31
0.0
 73
     2
  0
TEXT
  5
6D45
  8
0
 10
16.99708977370635
 20
628.14284323383265
 30
0.0
 40
2.0
  1
3
 72
     2
 11
18.330423107039682
 21
629.14284323383265
 31
0.0
 73
     2
  0
TEXT
  5
6D46
  8
0
 10
16.99708977370635
 20
638.14284323383265
 30
0.0
 40
2.0
  1
2
 72
     2
 11
18.330423107039682
 21
639.14284323383276
 31
0.0
 73
     2
  0
TEXT
  5
6D47
  8
0
 10
17.66375644037301
 20
648.14284323383265
 30
0.0
 40
2.0
  1
1
 72
     2
 11
18.330423107039682
 21
649.14284323383265
 31
0.0
 73
     2
  0
TEXT
  5
6D48
  8
0
 10
16.99708977370635
 20
598.14284323383265
 30
0.0
 40
2.0
  1
6
 72
     2
 11
18.330423107039682
 21
599.14284323383265
 31
0.0
 73
     2
  0
TEXT
  5
6D49
  8
0
 10
16.99708977370635
 20
588.14284323383265
 30
0.0
 40
2.0
  1
7
 72
     2
 11
18.330423107039682
 21
589.14284323383276
 31
0.0
 73
     2
  0
TEXT
  5
6D4A
  8
0
 10
16.99708977370635
 20
578.14284323383265
 30
0.0
 40
2.0
  1
8
 72
     2
 11
18.330423107039682
 21
579.14284323383265
 31
0.0
 73
     2
  0
TEXT
  5
6D4B
  8
0
 10
16.99708977370635
 20
568.14284323383276
 30
0.0
 40
2.0
  1
9
 72
     2
 11
18.330423107039682
 21
569.14284323383265
 31
0.0
 73
     2
  0
TEXT
  5
6D4C
  8
0
 10
15.997089773706341
 20
558.14284323383265
 30
0.0
 40
2.0
  1
10
 72
     2
 11
18.330423107039682
 21
559.14284323383265
 31
0.0
 73
     2
  0
TEXT
  5
6D4D
  8
0
 10
198.45689252563739
 20
712.39284298949292
 30
0.0
 40
3.5
  1
～
 11
198.45689252563739
 21
714.14284298949292
 31
0.0
 73
     2
  0
LINE
  5
6D4E
  8
0
 10
231.0
 20
660.14284323383276
 30
0.0
 11
231.0
 21
674.14284323383265
 31
0.0
  0
LINE
  5
6D4F
  8
0
 10
256.0
 20
660.14284323383276
 30
0.0
 11
256.0
 21
685.14284323383276
 31
0.0
  0
LINE
  5
6D50
  8
0
 10
50.0
 20
660.14284323383276
 30
0.0
 11
50.0
 21
679.14284323383265
 31
0.0
  0
LINE
  5
6D51
  8
0
 10
205.0
 20
674.14258316006942
 30
0.0
 11
205.0
 21
660.14258316006953
 31
0.0
  0
LINE
  5
6D52
  8
0
 10
197.0
 20
674.14284323383265
 30
0.0
 11
241.0
 21
674.14284323383265
 31
0.0
  0
TEXT
  5
6D53
  8
0
 10
98.540399734216521
 20
676.64284353417509
 30
0.0
 40
3.0
  1
風　　化
  7
STANDATDT
 72
     4
 11
98.540399734216521
 21
669.64284353417509
 31
0.0
  0
TEXT
  5
6D54
  8
0
 10
93.540399734216592
 20
676.84284353417513
 30
0.0
 40
3.0
  1
コア形状
  7
STANDATDT
 72
     4
 11
93.540399734216592
 21
669.64284353417509
 31
0.0
  0
LINE
  5
6D55
  8
0
 10
96.000000828072416
 20
660.14284353417509
 30
0.0
 11
96.000000828072416
 21
679.14284353417497
 31
0.0
  0
LINE
  5
6D56
  8
0
 10
91.000000828072416
 20
660.14284353417509
 30
0.0
 11
91.000000828072416
 21
679.14284353417497
 31
0.0
  0
TEXT
  5
6D57
  8
0
 10
103.54039973421651
 20
676.54284353417506
 30
0.0
 40
3.0
  1
変　　質
  7
STANDATDT
 72
     4
 11
103.54039973421651
 21
669.64284353417509
 31
0.0
  0
LINE
  5
6D58
  8
0
 10
101.0000008280724
 20
660.14284353417509
 30
0.0
 11
101.0000008280724
 21
679.14284353417497
 31
0.0
  0
LINE
  5
6D59
  8
0
 10
187.0
 20
660.14284323383276
 30
0.0
 11
187.0
 21
679.14284323383265
 31
0.0
  0
LINE
  5
6D5A
  8
0
 10
197.0
 20
660.14284323383276
 30
0.0
 11
197.0
 21
679.14284323383265
 31
0.0
  0
LINE
  5
6D5B
  8
0
 10
221.0
 20
660.14284323383276
 30
0.0
 11
220.9999999999998
 21
679.14284323383265
 31
0.0
  0
TEXT
  5
6D5C
  8
0
 10
161.33333333333329
 20
671.11759858999221
 30
0.0
 40
2.5
  1
貫入試験
 72
     1
 11
167.0
 21
670.78426525665884
 31
0.0
 73
     1
  0
TEXT
  5
6D5D
  8
0
 10
161.33333333333329
 20
674.70152179302545
 30
0.0
 40
2.5
  1
標　　準
 72
     1
 11
167.0
 21
674.36818845969219
 31
0.0
 73
     1
  0
LINE
  5
6D5E
  8
0
 10
158.0
 20
669.14284353417509
 30
0.0
 11
176.0
 21
669.14284353417509
 31
0.0
  0
TEXT
  5
6D5F
  8
0
 10
156.10491679478699
 20
676.94153193599527
 30
0.0
 40
3.0
  1
コ　ア
  7
STANDATDT
 72
     4
 11
156.10491679478699
 21
671.64153193599532
 31
0.0
  0
TEXT
  5
6D60
  8
0
 10
151.96766895965641
 20
676.74153193599534
 30
0.0
 40
3.0
  1
採取率
  7
STANDATDT
 72
     4
 11
151.96766895965641
 21
671.64153193599532
 31
0.0
  0
LINE
  5
6D61
  8
0
 10
150.00000082807239
 20
660.14284353417509
 30
0.0
 11
150.00000082807239
 21
679.14284353417497
 31
0.0
  0
TEXT
  5
6D62
  8
0
 10
151.25000082807239
 20
661.10356578662811
 30
0.0
 40
2.5
  1
(％)
 72
     1
 11
154.00000082807239
 21
660.77023245329474
 31
0.0
 73
     1
  0
LINE
  5
6D63
  8
0
 10
158.00000082807239
 20
660.14284353417509
 30
0.0
 11
158.00000082807239
 21
679.14284353417497
 31
0.0
  0
LINE
  5
6D64
  8
0
 10
158.00000082807239
 20
660.14284353417509
 30
0.0
 11
158.00000082807239
 21
679.14284353417497
 31
0.0
  0
TEXT
  5
6D65
  8
0
 10
164.5
 20
668.04284353417506
 30
0.0
 40
3.0
  1
区間
  7
STANDATDT
 72
     4
 11
164.5
 21
664.64284353417509
 31
0.0
  0
TEXT
  5
6D66
  8
0
 10
173.4999999999998
 20
668.04284353417506
 30
0.0
 40
3.0
  1
Ｎ値
  7
STANDATDT
 72
     4
 11
173.4999999999998
 21
664.64284353417509
 31
0.0
  0
LINE
  5
6D67
  8
0
 10
171.0
 20
660.14284353417509
 30
0.0
 11
171.0
 21
669.14284353417509
 31
0.0
  0
TEXT
  5
6D68
  8
0
 10
109.6605321241932
 20
694.56684323774095
 30
0.0
 40
1.8
  1
90゜
 72
     1
 11
111.5505321241932
 21
695.46684323774093
 31
0.0
 73
     2
  0
TEXT
  5
6D69
  8
0
 10
101.5833333333333
 20
720.89284323383276
 30
0.0
 40
2.5
  1
調査位置
 72
     1
 11
107.25
 21
722.14284323383276
 31
0.0
 73
     2
  0
TEXT
  5
6D6A
  8
0
 10
101.5833333333333
 20
704.89284323383265
 30
0.0
 40
2.5
  1
主任技師
 72
     1
 11
107.25
 21
706.14284323383276
 31
0.0
 73
     2
  0
POLYLINE
  5
6D6B
  8
0
 66
     1
 10
0.0
 20
0.0
 30
0.0
 70
     1
  0
VERTEX
  5
79B0
  8
0
 10
288.0
 20
686.14284323383265
 30
0.0
  0
VERTEX
  5
79B1
  8
0
 10
10.0
 20
686.14284323383265
 30
0.0
  0
VERTEX
  5
79B2
  8
0
 10
10.0
 20
726.14284323383265
 30
0.0
  0
VERTEX
  5
79B3
  8
0
 10
288.0
 20
726.14284323383265
 30
0.0
  0
SEQEND
  5
79B4
  8
0
  0
LINE
  5
6D71
  8
0
 10
52.0
 20
738.64284323383265
 30
0.0
 11
207.0
 21
738.64284323383265
 31
0.0
  0
LINE
  5
6D72
  8
0
 10
52.0
 20
728.14284323383265
 30
0.0
 11
207.0
 21
728.14284323383265
 31
0.0
  0
LINE
  5
6D73
  8
0
 10
10.0
 20
702.14284323383276
 30
0.0
 11
288.0
 21
702.14284323383276
 31
0.0
  0
LINE
  5
6D74
  8
0
 10
10.0
 20
710.14284323383276
 30
0.0
 11
288.0
 21
710.14284323383276
 31
0.0
  0
LINE
  5
6D75
  8
0
 10
10.0
 20
718.14284323383276
 30
0.0
 11
288.0
 21
718.14284323383276
 31
0.0
  0
LINE
  5
6D76
  8
0
 10
103.2499999999999
 20
694.14284323383265
 30
0.0
 11
103.2499999999999
 21
688.43822582833263
 31
0.0
  0
TEXT
  5
6D77
  8
0
 10
104.5291707453859
 20
687.387410759879
 30
0.0
 40
1.8
  1
南
 72
     1
 11
105.3691707453859
 21
688.28741075987887
 31
0.0
 73
     2
  0
TEXT
  5
6D78
  8
0
 10
98.683980293036015
 20
687.387410759879
 30
0.0
 40
1.8
  1
180゜
 72
     1
 11
101.173980293036
 21
688.28741075987887
 31
0.0
 73
     2
  0
LINE
  5
6D79
  8
0
 10
93.0
 20
686.14284323383265
 30
0.0
 11
93.0
 21
702.14284323383276
 31
0.0
  0
LINE
  5
6D7A
  8
0
 10
85.0
 20
686.14284323383265
 30
0.0
 11
85.0
 21
702.14284323383276
 31
0.0
  0
TEXT
  5
6D7B
  8
0
 10
89.0
 20
699.89284323383276
 30
0.0
 40
2.5
  1
方　　向
  7
STANDATDT
 72
     1
 11
89.0
 21
694.14284323383265
 31
0.0
 73
     2
  0
TEXT
  5
6D7C
  8
0
 10
74.455926910257048
 20
686.9299707711981
 30
0.0
 40
1.8
  1
0゜
 72
     1
 11
75.445926910257043
 21
687.82997077119796
 31
0.0
 73
     2
  0
LINE
  5
6D7D
  8
0
 10
75.500000223754114
 20
694.14284323383265
 30
0.0
 11
75.500000223754114
 21
688.43822582833263
 31
0.0
  0
LINE
  5
6D7E
  8
0
 10
69.0
 20
686.14284323383265
 30
0.0
 11
69.0
 21
702.14284323383276
 31
0.0
  0
TEXT
  5
6D7F
  8
0
 10
64.5
 20
699.89284323383276
 30
0.0
 40
2.5
  1
角　　度
  7
STANDATDT
 72
     1
 11
64.5
 21
694.14284323383265
 31
0.0
 73
     2
  0
TEXT
  5
6D80
  8
0
 10
55.54753692108374
 20
688.76387996570293
 30
0.0
 40
3.0
  1
m
 72
     1
 11
56.547536921083747
 21
690.26387996570293
 31
0.0
 73
     2
  0
LINE
  5
6D81
  8
0
 10
60.0
 20
686.14284323383265
 30
0.0
 11
60.0
 21
702.14284323383276
 31
0.0
  0
LINE
  5
6D82
  8
0
 10
36.0
 20
686.14284323383265
 30
0.0
 11
36.0
 21
726.14284323383265
 31
0.0
  0
TEXT
  5
6D83
  8
0
 10
12.83333333333333
 20
688.89284323383265
 30
0.0
 40
2.5
  1
総　掘　進　長
 72
     1
 11
23.0
 21
690.14284323383265
 31
0.0
 73
     2
  0
TEXT
  5
6D84
  8
0
 10
16.4163855562417
 20
720.89284323383276
 30
0.0
 40
2.5
  1
ー
 72
     1
 11
17.583052222908371
 21
722.14284323383276
 31
0.0
 73
     2
  0
TEXT
  5
6D85
  8
0
 10
12.916666666666661
 20
712.89284323383265
 30
0.0
 40
2.5
  1
発  注  機  関
 72
     1
 11
23.0
 21
714.14284323383276
 31
0.0
 73
     2
  0
TEXT
  5
6D86
  8
0
 10
12.83333333333333
 20
696.89284323383265
 30
0.0
 40
2.5
  1
孔  口  標  高
 72
     1
 11
23.0
 21
698.14284323383265
 31
0.0
 73
     2
  0
TEXT
  5
6D87
  8
0
 10
12.916666666666661
 20
704.89284323383265
 30
0.0
 40
2.5
  1
調 査 業 者 名
 72
     1
 11
23.0
 21
706.14284323383276
 31
0.0
 73
     2
  0
LINE
  5
6D88
  8
0
 10
10.0
 20
694.14284323383265
 30
0.0
 11
60.0
 21
694.14284323383265
 31
0.0
  0
TEXT
  5
6D89
  8
0
 10
12.44609981837675
 20
720.89284323383276
 30
0.0
 40
2.5
  1
ボ
 72
     1
 11
13.69609981837675
 21
722.14284323383276
 31
0.0
 73
     2
  0
TEXT
  5
6D8A
  8
0
 10
50.39173740336728
 20
703.23615334216515
 30
0.0
 40
2.0
  1
（          　  　　　　　   ）
 72
     1
 11
68.658404070033953
 21
704.23615334216515
 31
0.0
 73
     2
  0
TEXT
  5
6D8B
  8
0
 10
55.241122999872083
 20
730.35987386610407
 30
0.0
 40
4.0
  1
事業・工事名
 72
     1
 11
68.97445633320541
 21
732.35987386610418
 31
0.0
 73
     2
  0
TEXT
  5
6D8C
  8
0
 10
55.241122999872083
 20
740.85987386610418
 30
0.0
 40
4.0
  1
調   査   名
 72
     1
 11
68.97445633320541
 21
742.85987386610407
 31
0.0
 73
     2
  0
TEXT
  5
6D8D
  8
0
 10
27.91057610316988
 20
720.89284323383276
 30
0.0
 40
2.5
  1
グ
 72
     1
 11
29.243909436503209
 21
722.14284323383276
 31
0.0
 73
     2
  0
TEXT
  5
6D8E
  8
0
 10
32.047528507701507
 20
720.89284323383276
 30
0.0
 40
2.5
  1
名
 72
     1
 11
33.13086184103485
 21
722.14284323383276
 31
0.0
 73
     2
  0
TEXT
  5
6D8F
  8
0
 10
24.106957031971611
 20
720.89284323383276
 30
0.0
 40
2.5
  1
ン
 72
     1
 11
25.356957031971611
 21
722.14284323383276
 31
0.0
 73
     2
  0
TEXT
  5
6D90
  8
0
 10
20.30333796077332
 20
720.89284323383276
 30
0.0
 40
2.5
  1
リ
 72
     1
 11
21.470004627439991
 21
722.14284323383276
 31
0.0
 73
     2
  0
TEXT
  5
6D91
  8
0
 10
43.956225062303801
 20
703.23615334216515
 30
0.0
 40
2.0
  1
電話
 72
     1
 11
46.089558395637141
 21
704.23615334216515
 31
0.0
 73
     2
  0
TEXT
  5
6D92
  8
0
 10
55.54753692108374
 20
696.76387996570293
 30
0.0
 40
3.0
  1
m
 72
     1
 11
56.547536921083747
 21
698.26387996570293
 31
0.0
 73
     2
  0
LINE
  5
6D93
  8
0
 10
99.0
 20
726.14284323383265
 30
0.0
 11
99.0
 21
718.14284323383276
 31
0.0
  0
TEXT
  5
6D94
  8
0
 10
72.311722501059222
 20
700.09031978653331
 30
0.0
 40
1.8
  1
180゜
 72
     1
 11
74.801722501059217
 21
700.99031978653329
 31
0.0
 73
     2
  0
LINE
  5
6D95
  8
0
 10
75.500000223754114
 20
694.14284323383265
 30
0.0
 11
81.204617629254344
 21
694.14284323383265
 31
0.0
  0
ARC
  5
6D96
  8
0
 10
75.500000223754114
 20
694.14284323383265
 30
0.0
 40
4.5
 50
270.0
 51
90.0
  0
LINE
  5
6D97
  8
0
 10
75.500000223754114
 20
694.14284323383265
 30
0.0
 11
75.500000223754114
 21
699.84746063933278
 31
0.0
  0
TEXT
  5
6D98
  8
0
 10
72.777047559151612
 20
696.01556825006253
 30
0.0
 40
1.8
  1
上
 72
     1
 11
73.617047559151615
 21
696.91556825006251
 31
0.0
 73
     2
  0
TEXT
  5
6D99
  8
0
 10
72.777047559151612
 20
691.32225846920653
 30
0.0
 40
1.8
  1
下
 72
     1
 11
73.617047559151615
 21
692.22225846920651
 31
0.0
 73
     2
  0
TEXT
  5
6D9A
  8
0
 10
81.287348056396567
 20
695.04527913802133
 30
0.0
 40
1.8
  1
90゜
 72
     1
 11
83.177348056396568
 21
695.94527913802131
 31
0.0
 73
     2
  0
LINE
  5
6D9B
  8
0
 10
99.0
 20
710.14284323383276
 30
0.0
 11
99.0
 21
702.14284323383276
 31
0.0
  0
TEXT
  5
6D9C
  8
0
 10
100.6249312824494
 20
699.58493088944545
 30
0.0
 40
1.8
  1
北
 72
     1
 11
101.4649312824493
 21
700.48493088944542
 31
0.0
 73
     2
  0
LINE
  5
6D9D
  8
0
 10
103.2499999999999
 20
694.14284323383265
 30
0.0
 11
97.545382594499699
 21
694.14284323383265
 31
0.0
  0
CIRCLE
  5
6D9E
  8
0
 10
103.2499999999999
 20
694.14284323383265
 30
0.0
 40
4.5
  0
TEXT
  5
6D9F
  8
0
 10
95.105309771431294
 20
691.94509841919523
 30
0.0
 40
1.8
  1
西
 72
     1
 11
95.945309771431283
 21
692.84509841919521
 31
0.0
 73
     2
  0
TEXT
  5
6DA0
  8
0
 10
94.067334022075187
 20
694.56684323774095
 30
0.0
 40
1.8
  1
270゜
 72
     1
 11
96.857334022075193
 21
695.46684323774093
 31
0.0
 73
     2
  0
LINE
  5
6DA1
  8
0
 10
103.2499999999999
 20
694.14284323383265
 30
0.0
 11
103.2499999999999
 21
699.84746063933278
 31
0.0
  0
LINE
  5
6DA2
  8
0
 10
103.2499999999999
 20
694.14284323383265
 30
0.0
 11
108.9546174054999
 21
694.14284323383265
 31
0.0
  0
TEXT
  5
6DA3
  8
0
 10
109.4269034460918
 20
691.94509841919523
 30
0.0
 40
1.8
  1
東
 72
     1
 11
110.2669034460918
 21
692.84509841919521
 31
0.0
 73
     2
  0
TEXT
  5
6DA4
  8
0
 10
105.9118367462349
 20
699.50195563590546
 30
0.0
 40
1.8
  1
0゜
 72
     1
 11
106.90183674623491
 21
700.40195563590555
 31
0.0
 73
     2
  0
LINE
  5
6DA5
  8
0
 10
237.0
 20
702.14284323383276
 30
0.0
 11
237.0
 21
686.14284323383265
 31
0.0
  0
LINE
  5
6DA6
  8
0
 10
220.0
 20
702.14284323383276
 30
0.0
 11
220.0
 21
686.14284323383265
 31
0.0
  0
TEXT
  5
6DA7
  8
0
 10
222.75
 20
688.89284323383265
 30
0.0
 40
2.5
  1
ポ ン プ
 72
     1
 11
228.5
 21
690.14284323383265
 31
0.0
 73
     2
  0
LINE
  5
6DA8
  8
0
 10
162.5
 20
686.14284323383265
 30
0.0
 11
162.5
 21
718.14284323383276
 31
0.0
  0
TEXT
  5
6DA9
  8
0
 10
141.5
 20
699.89284323383276
 30
0.0
 40
2.5
  1
使用機種
  7
STANDATDT
 72
     1
 11
141.5
 21
694.14284323383265
 31
0.0
 73
     2
  0
LINE
  5
6DAA
  8
0
 10
145.4999999999998
 20
686.14284323383265
 30
0.0
 11
145.4999999999998
 21
718.14284323383276
 31
0.0
  0
TEXT
  5
6DAB
  8
0
 10
148.33333333333329
 20
688.89284323383265
 30
0.0
 40
2.5
  1
エンジン
 72
     1
 11
154.0
 21
690.14284323383265
 31
0.0
 73
     2
  0
LINE
  5
6DAC
  8
0
 10
137.5
 20
686.14284323383265
 30
0.0
 11
137.5
 21
702.14284323383276
 31
0.0
  0
TEXT
  5
6DAD
  8
0
 10
126.0157017748582
 20
688.74306118514289
 30
0.0
 40
1.8
  1
90゜
 72
     1
 11
127.9057017748582
 21
689.64306118514276
 31
0.0
 73
     2
  0
LINE
  5
6DAE
  8
0
 10
121.4999999999998
 20
686.14284323383265
 30
0.0
 11
121.4999999999998
 21
702.14284323383276
 31
0.0
  0
TEXT
  5
6DAF
  8
0
 10
117.5
 20
699.89284323383276
 30
0.0
 40
2.5
  1
地盤勾配
  7
STANDATDT
 72
     1
 11
117.5
 21
694.14284323383265
 31
0.0
 73
     2
  0
LINE
  5
6DB0
  8
0
 10
113.5
 20
686.14284323383265
 30
0.0
 11
113.5
 21
702.14284323383276
 31
0.0
  0
TEXT
  5
6DB1
  8
0
 10
194.7499999999998
 20
706.39284323383265
 30
0.0
 40
2.5
  1
コ　　ア
 72
     1
 11
200.49999999999989
 21
707.64284323383265
 31
0.0
 73
     2
  0
TEXT
  5
6DB2
  8
0
 10
194.8333333333332
 20
703.39284323383276
 30
0.0
 40
2.5
  1
鑑 定 者
 72
     1
 11
200.49999999999989
 21
704.64284323383265
 31
0.0
 73
     2
  0
LINE
  5
6DB3
  8
0
 10
145.4999999999998
 20
694.14284323383265
 30
0.0
 11
288.0
 21
694.14284323383265
 31
0.0
  0
TEXT
  5
6DB4
  8
0
 10
125.1666666666664
 20
753.24953306437681
 30
0.0
 40
5.0
  1
ボーリング柱状図
 72
     1
 11
148.4999999999998
 21
755.74953306437669
 31
0.0
 73
     2
  0
TEXT
  5
6DB5
  8
0
 10
148.33333333333329
 20
696.89284323383265
 30
0.0
 40
2.5
  1
試 錐 機
 72
     1
 11
154.0
 21
698.14284323383265
 31
0.0
 73
     2
  0
TEXT
  5
6DB6
  8
0
 10
148.33333333333329
 20
703.39284323383276
 30
0.0
 40
2.5
  1
代 理 人
 72
     1
 11
154.0
 21
704.64284323383265
 31
0.0
 73
     2
  0
TEXT
  5
6DB7
  8
0
 10
148.33333333333329
 20
706.39284323383265
 30
0.0
 40
2.5
  1
現　　場
 72
     1
 11
154.0
 21
707.64284323383265
 31
0.0
 73
     2
  0
TEXT
  5
6DB8
  8
0
 10
148.4166666666666
 20
712.89284323383265
 30
0.0
 40
2.5
  1
調査期間
 72
     1
 11
154.0
 21
714.14284323383276
 31
0.0
 73
     2
  0
LINE
  5
6DB9
  8
0
 10
115.5
 20
726.14284323383265
 30
0.0
 11
115.5
 21
718.14284323383276
 31
0.0
  0
TEXT
  5
6DBA
  8
0
 10
133.8597423266454
 20
696.30922078326785
 30
0.0
 40
1.8
  1
0゜
 72
     1
 11
134.84974232664541
 21
697.20922078326794
 31
0.0
 73
     2
  0
LINE
  5
6DBB
  8
0
 10
115.5
 20
710.14284323383276
 30
0.0
 11
115.5
 21
702.14284323383276
 31
0.0
  0
TEXT
  5
6DBC
  8
0
 10
124.53747192386921
 20
696.64595332638476
 30
0.0
 40
1.8
  1
鉛直
  7
STANDATDT
 72
     1
 11
124.53747192386921
 21
694.66595332638485
 31
0.0
 73
     2
  0
TEXT
  5
6DBD
  8
0
 10
127.9442777811494
 20
697.59242502991788
 30
0.0
 40
1.8
  1
水平
 72
     1
 11
129.86427778114941
 21
698.49242502991785
 31
0.0
 73
     2
  0
ARC
  5
6DBE
  8
0
 10
126.4999842828085
 20
696.92718685573163
 30
0.0
 40
4.5
 50
270.0
 51
0.0
  0
LINE
  5
6DBF
  8
0
 10
126.4999842828085
 20
696.92718685573163
 30
0.0
 11
132.20460168830891
 21
696.92718685573163
 31
0.0
  0
LINE
  5
6DC0
  8
0
 10
126.4999842828085
 20
696.92718685573163
 30
0.0
 11
126.4999842828085
 21
691.22256945023128
 31
0.0
  0
LINE
  5
6DC1
  8
0
 10
192.4999999999998
 20
702.14284323383276
 30
0.0
 11
192.4999999999998
 21
710.14284323383276
 31
0.0
  0
TEXT
  5
6DC2
  8
0
 10
242.33333333333329
 20
706.39284323383265
 30
0.0
 40
2.5
  1
ボーリン
 72
     1
 11
248.0
 21
707.64284323383265
 31
0.0
 73
     2
  0
TEXT
  5
6DC3
  8
0
 10
242.1666666666666
 20
703.39284323383276
 30
0.0
 40
2.5
  1
グ責任者
 72
     1
 11
248.0
 21
704.64284323383265
 31
0.0
 73
     2
  0
TEXT
  5
6DC4
  8
0
 10
242.33333333333329
 20
712.89284323383265
 30
0.0
 40
2.5
  1
東　　経
 72
     1
 11
248.0
 21
714.14284323383276
 31
0.0
 73
     2
  0
TEXT
  5
6DC5
  8
0
 10
242.33333333333329
 20
720.89284323383276
 30
0.0
 40
2.5
  1
北　　緯
 72
     1
 11
248.0
 21
722.14284323383276
 31
0.0
 73
     2
  0
POLYLINE
  5
6DC6
  8
0
 66
     1
 10
0.0
 20
0.0
 30
0.0
 70
     1
  0
VERTEX
  5
79B5
  8
0
 10
288.0
 20
735.14284323383288
 30
0.0
  0
VERTEX
  5
79B6
  8
0
 10
224.0
 20
735.14284323383288
 30
0.0
  0
VERTEX
  5
79B7
  8
0
 10
224.0
 20
743.64284323383288
 30
0.0
  0
VERTEX
  5
79B8
  8
0
 10
288.0
 20
743.64284323383288
 30
0.0
  0
SEQEND
  5
79B9
  8
0
  0
LINE
  5
6DCC
  8
0
 10
239.5
 20
726.14284323383265
 30
0.0
 11
239.5
 21
702.14284323383276
 31
0.0
  0
TEXT
  5
6DCD
  8
0
 10
222.9166666666666
 20
698.39284323383265
 30
0.0
 40
2.5
  1
ハンマー
 72
     1
 11
228.5
 21
699.64284323383265
 31
0.0
 73
     2
  0
TEXT
  5
6DCE
  8
0
 10
222.83333333333329
 20
695.39284323383276
 30
0.0
 40
2.5
  1
落下用具
 72
     1
 11
228.5
 21
696.64284323383265
 31
0.0
 73
     2
  0
LINE
  5
6DCF
  8
0
 10
209.0
 20
702.14284323383276
 30
0.0
 11
209.0
 21
710.14284323383276
 31
0.0
  0
TEXT
  5
6DD0
  8
0
 10
227.222901072822
 20
727.17822411474015
 30
0.0
 40
2.0
  1
シートNo.
 72
     1
 11
232.82290107282199
 21
728.17822411474026
 31
0.0
 73
     2
  0
TEXT
  5
6DD1
  8
0
 10
226.0
 20
738.39284323383288
 30
0.0
 40
2.0
  1
ボーリングNo.
 72
     1
 11
234.0
 21
739.39284323383299
 31
0.0
 73
     2
  0
LINE
  5
6DD2
  8
0
 10
252.0
 20
743.64284323383288
 30
0.0
 11
252.0
 21
735.14284323383288
 31
0.0
  0
LINE
  5
6DD3
  8
0
 10
248.0
 20
743.64284323383288
 30
0.0
 11
248.0
 21
735.14284323383288
 31
0.0
  0
LINE
  5
6DD4
  8
0
 10
244.0
 20
743.64284323383288
 30
0.0
 11
244.0
 21
735.14284323383288
 31
0.0
  0
LINE
  5
6DD5
  8
0
 10
256.49999999999989
 20
726.14284323383265
 30
0.0
 11
256.49999999999989
 21
702.14284323383276
 31
0.0
  0
LINE
  5
6DD6
  8
0
 10
276.0
 20
743.64284323383288
 30
0.0
 11
276.0
 21
735.14284323383288
 31
0.0
  0
LINE
  5
6DD7
  8
0
 10
272.0
 20
743.64284323383288
 30
0.0
 11
272.0
 21
735.14284323383288
 31
0.0
  0
LINE
  5
6DD8
  8
0
 10
268.0
 20
743.64284323383288
 30
0.0
 11
268.0
 21
735.14284323383288
 31
0.0
  0
LINE
  5
6DD9
  8
0
 10
264.0
 20
743.64284323383288
 30
0.0
 11
264.0
 21
735.14284323383288
 31
0.0
  0
LINE
  5
6DDA
  8
0
 10
260.0
 20
743.64284323383288
 30
0.0
 11
260.0
 21
735.14284323383288
 31
0.0
  0
LINE
  5
6DDB
  8
0
 10
256.0
 20
743.64284323383288
 30
0.0
 11
256.0
 21
735.14284323383288
 31
0.0
  0
LINE
  5
6DDC
  8
0
 10
284.0
 20
743.64284323383288
 30
0.0
 11
284.0
 21
735.14284323383288
 31
0.0
  0
LINE
  5
6DDD
  8
0
 10
280.0
 20
743.64284323383288
 30
0.0
 11
280.0
 21
735.14284323383288
 31
0.0
  0
LINE
  5
6DDE
  8
0
 10
241.0
 20
660.14284323383276
 30
0.0
 11
241.0
 21
679.14284323383265
 31
0.0
  0
LINE
  5
6DDF
  8
0
 10
251.0
 20
660.14284323383276
 30
0.0
 11
251.0
 21
679.14284323383265
 31
0.0
  0
LINE
  5
6DE0
  8
0
 10
73.000000000000014
 20
159.14284323383251
 30
0.0
 11
73.0
 21
659.14284323383265
 31
0.0
  0
LINE
  5
6DE1
  8
0
 10
50.000000000000071
 20
159.14284323383251
 30
0.0
 11
50.0
 21
659.14284323383265
 31
0.0
  0
LINE
  5
6DE2
  8
0
 10
40.0
 20
159.14284323383251
 30
0.0
 11
40.0
 21
659.14284323383265
 31
0.0
  0
LINE
  5
6DE3
  8
0
 10
30.0
 20
159.14284323383251
 30
0.0
 11
30.0
 21
659.14284323383265
 31
0.0
  0
LINE
  5
6DE4
  8
0
 10
20.0
 20
159.14284323383251
 30
0.0
 11
20.0
 21
659.14284323383265
 31
0.0
  0
LINE
  5
6DE5
  8
0
 10
83.0
 20
159.14284323383259
 30
0.0
 11
83.0
 21
659.14284323383265
 31
0.0
  0
LINE
  5
6DE6
  8
0
 10
91.000000828072416
 20
159.14284323383259
 30
0.0
 11
91.000000828072416
 21
659.1428435341752
 31
0.0
  0
LINE
  5
6DE7
  8
0
 10
96.000000828072302
 20
159.14284323383259
 30
0.0
 11
96.000000828072416
 21
659.1428435341752
 31
0.0
  0
LINE
  5
6DE8
  8
0
 10
101.0000008280723
 20
159.14284323383259
 30
0.0
 11
101.0000008280724
 21
659.1428435341752
 31
0.0
  0
LINE
  5
6DE9
  8
0
 10
106.0000008280723
 20
159.14284323383259
 30
0.0
 11
106.0000008280724
 21
659.1428435341752
 31
0.0
  0
LINE
  5
6DEA
  8
0
 10
150.00000082807239
 20
159.14284323383259
 30
0.0
 11
150.00000082807239
 21
659.1428435341752
 31
0.0
  0
LINE
  5
6DEB
  8
0
 10
158.0000008280725
 20
159.14284323383259
 30
0.0
 11
158.00000082807239
 21
659.1428435341752
 31
0.0
  0
LINE
  5
6DEC
  8
0
 10
170.9999999999998
 20
159.14284323383259
 30
0.0
 11
171.0
 21
659.1428435341752
 31
0.0
  0
LINE
  5
6DED
  8
0
 10
176.0
 20
159.14284323383259
 30
0.0
 11
176.0
 21
659.14284323383265
 31
0.0
  0
LINE
  5
6DEE
  8
0
 10
176.9999999999998
 20
159.14284323383259
 30
0.0
 11
177.0
 21
659.14284323383265
 31
0.0
  0
LINE
  5
6DEF
  8
0
 10
186.99999999999969
 20
159.14284323383259
 30
0.0
 11
187.0
 21
659.14284323383265
 31
0.0
  0
LINE
  5
6DF0
  8
0
 10
196.99999999999969
 20
159.14284323383259
 30
0.0
 11
197.0
 21
659.14284323383265
 31
0.0
  0
LINE
  5
6DF1
  8
0
 10
205.0
 20
159.14284323383259
 30
0.0
 11
205.0
 21
659.14258316006953
 31
0.0
  0
LINE
  5
6DF2
  8
0
 10
213.0
 20
159.14284323383259
 30
0.0
 11
213.0
 21
659.14258316006953
 31
0.0
  0
LINE
  5
6DF3
  8
0
 10
220.9999999999998
 20
159.14284323383259
 30
0.0
 11
221.0
 21
659.14258316006953
 31
0.0
  0
LINE
  5
6DF4
  8
0
 10
225.9999999999998
 20
159.14284323383259
 30
0.0
 11
226.0
 21
659.14258316006953
 31
0.0
  0
LINE
  5
6DF5
  8
0
 10
230.9999999999996
 20
159.14284323383259
 30
0.0
 11
231.0
 21
659.14284323383265
 31
0.0
  0
LINE
  5
6DF6
  8
0
 10
241.00000000000011
 20
159.14284323383259
 30
0.0
 11
241.0
 21
659.14284323383265
 31
0.0
  0
LINE
  5
6DF8
  8
0
 10
251.0000000000002
 20
159.14284323383259
 30
0.0
 11
251.0
 21
659.14284323383265
 31
0.0
  0
LINE
  5
6DF9
  8
0
 10
256.0
 20
159.14284323383259
 30
0.0
 11
256.0
 21
659.14284323383265
 31
0.0
  0
LINE
  5
6DFA
  8
0
 10
261.00000000000023
 20
159.14284323383259
 30
0.0
 11
261.0
 21
659.14284323383265
 31
0.0
  0
POLYLINE
  5
6DFB
  8
0
 66
     1
 10
0.0
 20
0.0
 30
0.0
 70
     1
  0
VERTEX
  5
79BA
  8
0
 10
297.0
 20
0.0
 30
0.0
  0
VERTEX
  5
79BB
  8
0
 10
297.0
 20
775.32064812713588
 30
0.0
  0
VERTEX
  5
79BC
  8
0
 10
0.0
 20
775.32064812713588
 30
0.0
  0
VERTEX
  5
79BD
  8
0
 10
0.0
 20
0.0
 30
0.0
  0
SEQEND
  5
79BE
  8
0
  0
TEXT
  5
6E01
  8
0
 10
15.66375644037301
 20
468.14284323383259
 30
0.0
 40
2.0
  1
19
 72
     2
 11
18.330423107039682
 21
469.14284323383259
 31
0.0
 73
     2
  0
LINE
  5
6E02
  8
0
 10
10.0
 20
459.14284323383248
 30
0.0
 11
13.0
 21
459.14284323383248
 31
0.0
  0
LINE
  5
6E03
  8
0
 10
10.0
 20
460.14284323383259
 30
0.0
 11
11.0
 21
460.14284323383259
 31
0.0
  0
LINE
  5
6E04
  8
0
 10
10.0
 20
469.14284323383259
 30
0.0
 11
13.0
 21
469.14284323383259
 31
0.0
  0
LINE
  5
6E05
  8
0
 10
10.0
 20
468.14284323383259
 30
0.0
 11
11.0
 21
468.14284323383259
 31
0.0
  0
LINE
  5
6E06
  8
0
 10
10.0
 20
467.14284323383259
 30
0.0
 11
11.0
 21
467.14284323383259
 31
0.0
  0
LINE
  5
6E07
  8
0
 10
10.0
 20
466.14284323383282
 30
0.0
 11
11.0
 21
466.14284323383282
 31
0.0
  0
LINE
  5
6E08
  8
0
 10
10.0
 20
465.14284323383271
 30
0.0
 11
11.0
 21
465.14284323383271
 31
0.0
  0
LINE
  5
6E09
  8
0
 10
10.0
 20
464.14284323383259
 30
0.0
 11
12.0
 21
464.14284323383259
 31
0.0
  0
LINE
  5
6E0A
  8
0
 10
10.0
 20
461.14284323383271
 30
0.0
 11
11.0
 21
461.14284323383271
 31
0.0
  0
LINE
  5
6E0B
  8
0
 10
10.0
 20
462.14284323383282
 30
0.0
 11
11.0
 21
462.14284323383282
 31
0.0
  0
LINE
  5
6E0C
  8
0
 10
10.0
 20
463.14284323383259
 30
0.0
 11
11.0
 21
463.14284323383259
 31
0.0
  0
TEXT
  5
6E0D
  8
0
 10
15.33042310703968
 20
458.14284323383248
 30
0.0
 40
2.0
  1
20
 72
     2
 11
18.330423107039682
 21
459.14284323383248
 31
0.0
 73
     2
  0
LINE
  5
6E0E
  8
0
 10
10.0
 20
478.14284323383282
 30
0.0
 11
11.0
 21
478.14284323383282
 31
0.0
  0
LINE
  5
6E0F
  8
0
 10
10.0
 20
477.14284323383259
 30
0.0
 11
11.0
 21
477.14284323383259
 31
0.0
  0
LINE
  5
6E10
  8
0
 10
10.0
 20
476.14284323383259
 30
0.0
 11
11.0
 21
476.14284323383259
 31
0.0
  0
LINE
  5
6E11
  8
0
 10
10.0
 20
475.14284323383282
 30
0.0
 11
11.0
 21
475.14284323383282
 31
0.0
  0
LINE
  5
6E12
  8
0
 10
10.0
 20
472.14284323383259
 30
0.0
 11
11.0
 21
472.14284323383259
 31
0.0
  0
LINE
  5
6E13
  8
0
 10
10.0
 20
473.14284323383259
 30
0.0
 11
11.0
 21
473.14284323383259
 31
0.0
  0
LINE
  5
6E14
  8
0
 10
10.0
 20
474.14284323383282
 30
0.0
 11
12.0
 21
474.14284323383282
 31
0.0
  0
LINE
  5
6E15
  8
0
 10
10.0
 20
470.14284323383282
 30
0.0
 11
11.0
 21
470.14284323383282
 31
0.0
  0
LINE
  5
6E16
  8
0
 10
10.0
 20
471.14284323383259
 30
0.0
 11
11.0
 21
471.14284323383259
 31
0.0
  0
LINE
  5
6E17
  8
0
 10
10.0
 20
479.14284323383282
 30
0.0
 11
13.0
 21
479.14284323383282
 31
0.0
  0
LINE
  5
6E18
  8
0
 10
10.0
 20
481.14284323383259
 30
0.0
 11
11.0
 21
481.14284323383259
 31
0.0
  0
LINE
  5
6E19
  8
0
 10
10.0
 20
482.14284323383282
 30
0.0
 11
11.0
 21
482.14284323383282
 31
0.0
  0
LINE
  5
6E1A
  8
0
 10
10.0
 20
486.14284323383271
 30
0.0
 11
11.0
 21
486.14284323383271
 31
0.0
  0
LINE
  5
6E1B
  8
0
 10
10.0
 20
485.14284323383259
 30
0.0
 11
11.0
 21
485.14284323383259
 31
0.0
  0
LINE
  5
6E1C
  8
0
 10
10.0
 20
483.14284323383282
 30
0.0
 11
11.0
 21
483.14284323383282
 31
0.0
  0
LINE
  5
6E1D
  8
0
 10
10.0
 20
484.14284323383248
 30
0.0
 11
12.0
 21
484.14284323383248
 31
0.0
  0
LINE
  5
6E1E
  8
0
 10
10.0
 20
480.14284323383248
 30
0.0
 11
11.0
 21
480.14284323383248
 31
0.0
  0
TEXT
  5
6E1F
  8
0
 10
15.66375644037301
 20
478.14284323383282
 30
0.0
 40
2.0
  1
18
 72
     2
 11
18.330423107039682
 21
479.14284323383282
 31
0.0
 73
     2
  0
LINE
  5
6E20
  8
0
 10
10.0
 20
489.14284323383259
 30
0.0
 11
13.0
 21
489.14284323383259
 31
0.0
  0
LINE
  5
6E21
  8
0
 10
10.0
 20
490.14284323383271
 30
0.0
 11
11.0
 21
490.14284323383271
 31
0.0
  0
LINE
  5
6E22
  8
0
 10
10.0
 20
491.14284323383282
 30
0.0
 11
11.0
 21
491.14284323383282
 31
0.0
  0
LINE
  5
6E23
  8
0
 10
10.0
 20
492.14284323383259
 30
0.0
 11
11.0
 21
492.14284323383259
 31
0.0
  0
LINE
  5
6E24
  8
0
 10
10.0
 20
493.14284323383259
 30
0.0
 11
11.0
 21
493.14284323383259
 31
0.0
  0
LINE
  5
6E25
  8
0
 10
10.0
 20
495.14284323383282
 30
0.0
 11
11.0
 21
495.14284323383282
 31
0.0
  0
LINE
  5
6E26
  8
0
 10
10.0
 20
494.14284323383259
 30
0.0
 11
12.0
 21
494.14284323383259
 31
0.0
  0
LINE
  5
6E27
  8
0
 10
10.0
 20
488.14284323383259
 30
0.0
 11
11.0
 21
488.14284323383259
 31
0.0
  0
LINE
  5
6E28
  8
0
 10
10.0
 20
487.14284323383282
 30
0.0
 11
11.0
 21
487.14284323383282
 31
0.0
  0
LINE
  5
6E29
  8
0
 10
10.0
 20
499.14284323383282
 30
0.0
 11
13.0
 21
499.14284323383282
 31
0.0
  0
LINE
  5
6E2A
  8
0
 10
10.0
 20
498.14284323383259
 30
0.0
 11
11.0
 21
498.14284323383259
 31
0.0
  0
LINE
  5
6E2B
  8
0
 10
10.0
 20
497.14284323383259
 30
0.0
 11
11.0
 21
497.14284323383259
 31
0.0
  0
LINE
  5
6E2C
  8
0
 10
10.0
 20
500.14284323383282
 30
0.0
 11
11.0
 21
500.14284323383282
 31
0.0
  0
LINE
  5
6E2D
  8
0
 10
10.0
 20
501.14284323383259
 30
0.0
 11
11.0
 21
501.14284323383259
 31
0.0
  0
LINE
  5
6E2E
  8
0
 10
10.0
 20
502.14284323383259
 30
0.0
 11
11.0
 21
502.14284323383259
 31
0.0
  0
LINE
  5
6E2F
  8
0
 10
10.0
 20
503.14284323383282
 30
0.0
 11
11.0
 21
503.14284323383282
 31
0.0
  0
LINE
  5
6E30
  8
0
 10
10.0
 20
504.14284323383282
 30
0.0
 11
12.0
 21
504.14284323383282
 31
0.0
  0
LINE
  5
6E31
  8
0
 10
10.0
 20
496.14284323383259
 30
0.0
 11
11.0
 21
496.14284323383259
 31
0.0
  0
TEXT
  5
6E32
  8
0
 10
15.66375644037301
 20
488.14284323383248
 30
0.0
 40
2.0
  1
17
 72
     2
 11
18.330423107039682
 21
489.14284323383259
 31
0.0
 73
     2
  0
TEXT
  5
6E33
  8
0
 10
15.66375644037301
 20
498.14284323383271
 30
0.0
 40
2.0
  1
16
 72
     2
 11
18.330423107039682
 21
499.14284323383282
 31
0.0
 73
     2
  0
LINE
  5
6E34
  8
0
 10
10.0
 20
509.14284323383248
 30
0.0
 11
13.0
 21
509.14284323383248
 31
0.0
  0
LINE
  5
6E35
  8
0
 10
10.0
 20
513.14284323383265
 30
0.0
 11
11.0
 21
513.14284323383265
 31
0.0
  0
LINE
  5
6E36
  8
0
 10
10.0
 20
508.14284323383282
 30
0.0
 11
11.0
 21
508.14284323383282
 31
0.0
  0
LINE
  5
6E37
  8
0
 10
10.0
 20
507.14284323383282
 30
0.0
 11
11.0
 21
507.14284323383282
 31
0.0
  0
LINE
  5
6E38
  8
0
 10
10.0
 20
506.14284323383259
 30
0.0
 11
11.0
 21
506.14284323383259
 31
0.0
  0
LINE
  5
6E39
  8
0
 10
10.0
 20
505.14284323383248
 30
0.0
 11
11.0
 21
505.14284323383248
 31
0.0
  0
LINE
  5
6E3A
  8
0
 10
10.0
 20
510.14284323383259
 30
0.0
 11
11.0
 21
510.14284323383259
 31
0.0
  0
LINE
  5
6E3B
  8
0
 10
10.0
 20
511.14284323383271
 30
0.0
 11
11.0
 21
511.14284323383271
 31
0.0
  0
LINE
  5
6E3C
  8
0
 10
10.0
 20
512.14284323383265
 30
0.0
 11
11.0
 21
512.14284323383265
 31
0.0
  0
LINE
  5
6E3D
  8
0
 10
10.0
 20
519.14284323383265
 30
0.0
 11
13.0
 21
519.14284323383265
 31
0.0
  0
LINE
  5
6E3E
  8
0
 10
10.0
 20
518.14284323383276
 30
0.0
 11
11.0
 21
518.14284323383276
 31
0.0
  0
LINE
  5
6E3F
  8
0
 10
10.0
 20
517.14284323383265
 30
0.0
 11
11.0
 21
517.14284323383265
 31
0.0
  0
LINE
  5
6E40
  8
0
 10
10.0
 20
516.14284323383265
 30
0.0
 11
11.0
 21
516.14284323383265
 31
0.0
  0
LINE
  5
6E41
  8
0
 10
10.0
 20
515.14284323383265
 30
0.0
 11
11.0
 21
515.14284323383265
 31
0.0
  0
LINE
  5
6E42
  8
0
 10
10.0
 20
520.14284323383265
 30
0.0
 11
11.0
 21
520.14284323383265
 31
0.0
  0
LINE
  5
6E43
  8
0
 10
10.0
 20
521.14284323383265
 30
0.0
 11
11.0
 21
521.14284323383265
 31
0.0
  0
LINE
  5
6E44
  8
0
 10
10.0
 20
514.14284323383276
 30
0.0
 11
12.0
 21
514.14284323383276
 31
0.0
  0
TEXT
  5
6E45
  8
0
 10
15.66375644037301
 20
508.14284323383248
 30
0.0
 40
2.0
  1
15
 72
     2
 11
18.330423107039682
 21
509.14284323383248
 31
0.0
 73
     2
  0
TEXT
  5
6E46
  8
0
 10
15.66375644037301
 20
518.14284323383276
 30
0.0
 40
2.0
  1
14
 72
     2
 11
18.330423107039682
 21
519.14284323383265
 31
0.0
 73
     2
  0
TEXT
  5
6E47
  8
0
 10
15.66375644037301
 20
538.14284323383265
 30
0.0
 40
2.0
  1
12
 72
     2
 11
18.330423107039682
 21
539.14284323383276
 31
0.0
 73
     2
  0
LINE
  5
6E48
  8
0
 10
10.0
 20
529.14284323383265
 30
0.0
 11
13.0
 21
529.14284323383265
 31
0.0
  0
LINE
  5
6E49
  8
0
 10
10.0
 20
530.14284323383265
 30
0.0
 11
11.0
 21
530.14284323383265
 31
0.0
  0
LINE
  5
6E4A
  8
0
 10
10.0
 20
525.14284323383265
 30
0.0
 11
11.0
 21
525.14284323383265
 31
0.0
  0
LINE
  5
6E4B
  8
0
 10
10.0
 20
522.14284323383265
 30
0.0
 11
11.0
 21
522.14284323383265
 31
0.0
  0
LINE
  5
6E4C
  8
0
 10
10.0
 20
523.14284323383265
 30
0.0
 11
11.0
 21
523.14284323383265
 31
0.0
  0
LINE
  5
6E4D
  8
0
 10
10.0
 20
528.14284323383265
 30
0.0
 11
11.0
 21
528.14284323383265
 31
0.0
  0
LINE
  5
6E4E
  8
0
 10
10.0
 20
527.14284323383276
 30
0.0
 11
11.0
 21
527.14284323383276
 31
0.0
  0
LINE
  5
6E4F
  8
0
 10
10.0
 20
526.14284323383265
 30
0.0
 11
11.0
 21
526.14284323383265
 31
0.0
  0
LINE
  5
6E50
  8
0
 10
10.0
 20
524.14284323383265
 30
0.0
 11
12.0
 21
524.14284323383265
 31
0.0
  0
LINE
  5
6E51
  8
0
 10
10.0
 20
539.14284323383276
 30
0.0
 11
13.0
 21
539.14284323383276
 31
0.0
  0
LINE
  5
6E52
  8
0
 10
10.0
 20
538.14284323383265
 30
0.0
 11
11.0
 21
538.14284323383265
 31
0.0
  0
LINE
  5
6E53
  8
0
 10
10.0
 20
536.14284323383265
 30
0.0
 11
11.0
 21
536.14284323383265
 31
0.0
  0
LINE
  5
6E54
  8
0
 10
10.0
 20
535.14284323383276
 30
0.0
 11
11.0
 21
535.14284323383276
 31
0.0
  0
LINE
  5
6E55
  8
0
 10
10.0
 20
531.14284323383276
 30
0.0
 11
11.0
 21
531.14284323383276
 31
0.0
  0
LINE
  5
6E56
  8
0
 10
10.0
 20
532.14284323383265
 30
0.0
 11
11.0
 21
532.14284323383265
 31
0.0
  0
LINE
  5
6E57
  8
0
 10
10.0
 20
533.14284323383265
 30
0.0
 11
11.0
 21
533.14284323383265
 31
0.0
  0
LINE
  5
6E58
  8
0
 10
10.0
 20
537.14284323383265
 30
0.0
 11
11.0
 21
537.14284323383265
 31
0.0
  0
LINE
  5
6E59
  8
0
 10
10.0
 20
534.14284323383265
 30
0.0
 11
12.0
 21
534.14284323383265
 31
0.0
  0
TEXT
  5
6E5A
  8
0
 10
15.66375644037301
 20
528.14284323383265
 30
0.0
 40
2.0
  1
13
 72
     2
 11
18.330423107039682
 21
529.14284323383265
 31
0.0
 73
     2
  0
LINE
  5
6E5B
  8
0
 10
10.0
 20
546.14284323383265
 30
0.0
 11
11.0
 21
546.14284323383265
 31
0.0
  0
LINE
  5
6E5C
  8
0
 10
10.0
 20
547.14284323383265
 30
0.0
 11
11.0
 21
547.14284323383265
 31
0.0
  0
LINE
  5
6E5D
  8
0
 10
10.0
 20
545.14284323383265
 30
0.0
 11
11.0
 21
545.14284323383265
 31
0.0
  0
LINE
  5
6E5E
  8
0
 10
10.0
 20
540.14284323383265
 30
0.0
 11
11.0
 21
540.14284323383265
 31
0.0
  0
LINE
  5
6E5F
  8
0
 10
10.0
 20
541.14284323383265
 30
0.0
 11
11.0
 21
541.14284323383265
 31
0.0
  0
LINE
  5
6E60
  8
0
 10
10.0
 20
542.14284323383265
 30
0.0
 11
11.0
 21
542.14284323383265
 31
0.0
  0
LINE
  5
6E61
  8
0
 10
10.0
 20
543.14284323383276
 30
0.0
 11
11.0
 21
543.14284323383276
 31
0.0
  0
LINE
  5
6E62
  8
0
 10
10.0
 20
544.14284323383265
 30
0.0
 11
12.0
 21
544.14284323383265
 31
0.0
  0
LINE
  5
6E63
  8
0
 10
10.0
 20
549.14284323383265
 30
0.0
 11
13.0
 21
549.14284323383265
 31
0.0
  0
LINE
  5
6E64
  8
0
 10
10.0
 20
555.14284323383265
 30
0.0
 11
11.0
 21
555.14284323383265
 31
0.0
  0
LINE
  5
6E65
  8
0
 10
10.0
 20
556.14284323383276
 30
0.0
 11
11.0
 21
556.14284323383276
 31
0.0
  0
LINE
  5
6E66
  8
0
 10
10.0
 20
554.14284323383265
 30
0.0
 11
12.0
 21
554.14284323383265
 31
0.0
  0
LINE
  5
6E67
  8
0
 10
10.0
 20
548.14284323383265
 30
0.0
 11
11.0
 21
548.14284323383265
 31
0.0
  0
LINE
  5
6E68
  8
0
 10
10.0
 20
553.14284323383265
 30
0.0
 11
11.0
 21
553.14284323383265
 31
0.0
  0
LINE
  5
6E69
  8
0
 10
10.0
 20
552.14284323383276
 30
0.0
 11
11.0
 21
552.14284323383276
 31
0.0
  0
LINE
  5
6E6A
  8
0
 10
10.0
 20
551.14284323383265
 30
0.0
 11
11.0
 21
551.14284323383265
 31
0.0
  0
LINE
  5
6E6B
  8
0
 10
10.0
 20
550.14284323383265
 30
0.0
 11
11.0
 21
550.14284323383265
 31
0.0
  0
TEXT
  5
6E6C
  8
0
 10
16.330423107039682
 20
548.14284323383265
 30
0.0
 40
2.0
  1
11
 72
     2
 11
18.330423107039682
 21
549.14284323383265
 31
0.0
 73
     2
  0
LINE
  5
6E6D
  8
0
 10
10.0
 20
557.14284323383265
 30
0.0
 11
11.0
 21
557.14284323383265
 31
0.0
  0
LINE
  5
6E6E
  8
0
 10
10.0
 20
558.14284323383265
 30
0.0
 11
11.0
 21
558.14284323383265
 31
0.0
  0
LINE
  5
6E6F
  8
0
 10
10.0
 20
363.14284323383282
 30
0.0
 11
11.0
 21
363.14284323383282
 31
0.0
  0
LINE
  5
6E70
  8
0
 10
10.0
 20
362.14284323383282
 30
0.0
 11
11.0
 21
362.14284323383282
 31
0.0
  0
LINE
  5
6E71
  8
0
 10
10.0
 20
361.14284323383282
 30
0.0
 11
11.0
 21
361.14284323383282
 31
0.0
  0
LINE
  5
6E72
  8
0
 10
10.0
 20
364.14284323383282
 30
0.0
 11
12.0
 21
364.14284323383282
 31
0.0
  0
LINE
  5
6E73
  8
0
 10
10.0
 20
359.14284323383282
 30
0.0
 11
11.0
 21
359.14284323383282
 31
0.0
  0
LINE
  5
6E74
  8
0
 10
10.0
 20
369.14284323383282
 30
0.0
 11
13.0
 21
369.14284323383282
 31
0.0
  0
LINE
  5
6E75
  8
0
 10
10.0
 20
371.14284323383282
 30
0.0
 11
11.0
 21
371.14284323383282
 31
0.0
  0
LINE
  5
6E76
  8
0
 10
10.0
 20
370.14284323383282
 30
0.0
 11
11.0
 21
370.14284323383282
 31
0.0
  0
LINE
  5
6E77
  8
0
 10
10.0
 20
373.14284323383282
 30
0.0
 11
11.0
 21
373.14284323383282
 31
0.0
  0
LINE
  5
6E78
  8
0
 10
10.0
 20
372.14284323383282
 30
0.0
 11
11.0
 21
372.14284323383282
 31
0.0
  0
LINE
  5
6E79
  8
0
 10
10.0
 20
365.14284323383282
 30
0.0
 11
11.0
 21
365.14284323383282
 31
0.0
  0
LINE
  5
6E7A
  8
0
 10
10.0
 20
366.14284323383282
 30
0.0
 11
11.0
 21
366.14284323383282
 31
0.0
  0
LINE
  5
6E7B
  8
0
 10
10.0
 20
367.14284323383282
 30
0.0
 11
11.0
 21
367.14284323383282
 31
0.0
  0
LINE
  5
6E7C
  8
0
 10
10.0
 20
368.14284323383282
 30
0.0
 11
11.0
 21
368.14284323383282
 31
0.0
  0
LINE
  5
6E7D
  8
0
 10
10.0
 20
379.14284323383282
 30
0.0
 11
13.0
 21
379.14284323383282
 31
0.0
  0
LINE
  5
6E7E
  8
0
 10
10.0
 20
380.14284323383282
 30
0.0
 11
11.0
 21
380.14284323383282
 31
0.0
  0
LINE
  5
6E7F
  8
0
 10
10.0
 20
382.14284323383282
 30
0.0
 11
11.0
 21
382.14284323383282
 31
0.0
  0
LINE
  5
6E80
  8
0
 10
10.0
 20
381.14284323383282
 30
0.0
 11
11.0
 21
381.14284323383282
 31
0.0
  0
LINE
  5
6E81
  8
0
 10
10.0
 20
374.14284323383282
 30
0.0
 11
12.0
 21
374.14284323383282
 31
0.0
  0
LINE
  5
6E82
  8
0
 10
10.0
 20
375.14284323383282
 30
0.0
 11
11.0
 21
375.14284323383282
 31
0.0
  0
LINE
  5
6E83
  8
0
 10
10.0
 20
376.14284323383282
 30
0.0
 11
11.0
 21
376.14284323383282
 31
0.0
  0
LINE
  5
6E84
  8
0
 10
10.0
 20
377.14284323383282
 30
0.0
 11
11.0
 21
377.14284323383282
 31
0.0
  0
LINE
  5
6E85
  8
0
 10
10.0
 20
378.14284323383282
 30
0.0
 11
11.0
 21
378.14284323383282
 31
0.0
  0
TEXT
  5
6E86
  8
0
 10
14.997089773706341
 20
368.14284323383282
 30
0.0
 40
2.0
  1
29
 72
     2
 11
18.330423107039682
 21
369.14284323383282
 31
0.0
 73
     2
  0
TEXT
  5
6E87
  8
0
 10
14.997089773706341
 20
378.14284323383282
 30
0.0
 40
2.0
  1
28
 72
     2
 11
18.330423107039682
 21
379.14284323383282
 31
0.0
 73
     2
  0
TEXT
  5
6E88
  8
0
 10
14.997089773706341
 20
398.14284323383282
 30
0.0
 40
2.0
  1
26
 72
     2
 11
18.330423107039682
 21
399.14284323383282
 31
0.0
 73
     2
  0
LINE
  5
6E89
  8
0
 10
10.0
 20
389.14284323383282
 30
0.0
 11
13.0
 21
389.14284323383282
 31
0.0
  0
LINE
  5
6E8A
  8
0
 10
10.0
 20
384.14284323383282
 30
0.0
 11
12.0
 21
384.14284323383282
 31
0.0
  0
LINE
  5
6E8B
  8
0
 10
10.0
 20
383.14284323383271
 30
0.0
 11
11.0
 21
383.14284323383271
 31
0.0
  0
LINE
  5
6E8C
  8
0
 10
10.0
 20
385.14284323383282
 30
0.0
 11
11.0
 21
385.14284323383282
 31
0.0
  0
LINE
  5
6E8D
  8
0
 10
10.0
 20
386.14284323383282
 30
0.0
 11
11.0
 21
386.14284323383282
 31
0.0
  0
LINE
  5
6E8E
  8
0
 10
10.0
 20
387.14284323383282
 30
0.0
 11
11.0
 21
387.14284323383282
 31
0.0
  0
LINE
  5
6E8F
  8
0
 10
10.0
 20
388.14284323383282
 30
0.0
 11
11.0
 21
388.14284323383282
 31
0.0
  0
LINE
  5
6E90
  8
0
 10
10.0
 20
391.14284323383282
 30
0.0
 11
11.0
 21
391.14284323383282
 31
0.0
  0
LINE
  5
6E91
  8
0
 10
10.0
 20
390.14284323383282
 30
0.0
 11
11.0
 21
390.14284323383282
 31
0.0
  0
LINE
  5
6E92
  8
0
 10
10.0
 20
399.14284323383282
 30
0.0
 11
13.0
 21
399.14284323383282
 31
0.0
  0
LINE
  5
6E93
  8
0
 10
10.0
 20
396.14284323383282
 30
0.0
 11
11.0
 21
396.14284323383282
 31
0.0
  0
LINE
  5
6E94
  8
0
 10
10.0
 20
397.14284323383282
 30
0.0
 11
11.0
 21
397.14284323383282
 31
0.0
  0
LINE
  5
6E95
  8
0
 10
10.0
 20
398.14284323383282
 30
0.0
 11
11.0
 21
398.14284323383282
 31
0.0
  0
LINE
  5
6E96
  8
0
 10
10.0
 20
394.14284323383282
 30
0.0
 11
12.0
 21
394.14284323383282
 31
0.0
  0
LINE
  5
6E97
  8
0
 10
10.0
 20
395.14284323383282
 30
0.0
 11
11.0
 21
395.14284323383282
 31
0.0
  0
LINE
  5
6E98
  8
0
 10
10.0
 20
393.14284323383282
 30
0.0
 11
11.0
 21
393.14284323383282
 31
0.0
  0
LINE
  5
6E99
  8
0
 10
10.0
 20
392.14284323383282
 30
0.0
 11
11.0
 21
392.14284323383282
 31
0.0
  0
TEXT
  5
6E9A
  8
0
 10
14.99708977370635
 20
388.14284323383282
 30
0.0
 40
2.0
  1
27
 72
     2
 11
18.330423107039682
 21
389.14284323383282
 31
0.0
 73
     2
  0
LINE
  5
6E9B
  8
0
 10
10.0
 20
405.14284323383282
 30
0.0
 11
11.0
 21
405.14284323383282
 31
0.0
  0
LINE
  5
6E9C
  8
0
 10
10.0
 20
406.14284323383282
 30
0.0
 11
11.0
 21
406.14284323383282
 31
0.0
  0
LINE
  5
6E9D
  8
0
 10
10.0
 20
407.14284323383271
 30
0.0
 11
11.0
 21
407.14284323383271
 31
0.0
  0
LINE
  5
6E9E
  8
0
 10
10.0
 20
408.14284323383282
 30
0.0
 11
11.0
 21
408.14284323383282
 31
0.0
  0
LINE
  5
6E9F
  8
0
 10
10.0
 20
404.14284323383282
 30
0.0
 11
12.0
 21
404.14284323383282
 31
0.0
  0
LINE
  5
6EA0
  8
0
 10
10.0
 20
403.14284323383282
 30
0.0
 11
11.0
 21
403.14284323383282
 31
0.0
  0
LINE
  5
6EA1
  8
0
 10
10.0
 20
402.14284323383282
 30
0.0
 11
11.0
 21
402.14284323383282
 31
0.0
  0
LINE
  5
6EA2
  8
0
 10
10.0
 20
401.14284323383282
 30
0.0
 11
11.0
 21
401.14284323383282
 31
0.0
  0
LINE
  5
6EA3
  8
0
 10
10.0
 20
400.14284323383282
 30
0.0
 11
11.0
 21
400.14284323383282
 31
0.0
  0
LINE
  5
6EA4
  8
0
 10
10.0
 20
409.14284323383282
 30
0.0
 11
13.0
 21
409.14284323383282
 31
0.0
  0
LINE
  5
6EA5
  8
0
 10
10.0
 20
414.14284323383282
 30
0.0
 11
12.0
 21
414.14284323383282
 31
0.0
  0
LINE
  5
6EA6
  8
0
 10
10.0
 20
415.14284323383271
 30
0.0
 11
11.0
 21
415.14284323383271
 31
0.0
  0
LINE
  5
6EA7
  8
0
 10
10.0
 20
416.14284323383282
 30
0.0
 11
11.0
 21
416.14284323383282
 31
0.0
  0
LINE
  5
6EA8
  8
0
 10
10.0
 20
417.14284323383282
 30
0.0
 11
11.0
 21
417.14284323383282
 31
0.0
  0
LINE
  5
6EA9
  8
0
 10
10.0
 20
412.14284323383282
 30
0.0
 11
11.0
 21
412.14284323383282
 31
0.0
  0
LINE
  5
6EAA
  8
0
 10
10.0
 20
411.14284323383271
 30
0.0
 11
11.0
 21
411.14284323383271
 31
0.0
  0
LINE
  5
6EAB
  8
0
 10
10.0
 20
410.14284323383282
 30
0.0
 11
11.0
 21
410.14284323383282
 31
0.0
  0
LINE
  5
6EAC
  8
0
 10
10.0
 20
413.14284323383282
 30
0.0
 11
11.0
 21
413.14284323383282
 31
0.0
  0
TEXT
  5
6EAD
  8
0
 10
14.997089773706341
 20
408.14284323383282
 30
0.0
 40
2.0
  1
25
 72
     2
 11
18.330423107039682
 21
409.14284323383282
 31
0.0
 73
     2
  0
LINE
  5
6EAE
  8
0
 10
10.0
 20
419.14284323383271
 30
0.0
 11
13.0
 21
419.14284323383271
 31
0.0
  0
LINE
  5
6EAF
  8
0
 10
10.0
 20
424.14284323383282
 30
0.0
 11
12.0
 21
424.14284323383282
 31
0.0
  0
LINE
  5
6EB0
  8
0
 10
10.0
 20
423.14284323383271
 30
0.0
 11
11.0
 21
423.14284323383271
 31
0.0
  0
LINE
  5
6EB1
  8
0
 10
10.0
 20
422.14284323383282
 30
0.0
 11
11.0
 21
422.14284323383282
 31
0.0
  0
LINE
  5
6EB2
  8
0
 10
10.0
 20
425.14284323383282
 30
0.0
 11
11.0
 21
425.14284323383282
 31
0.0
  0
LINE
  5
6EB3
  8
0
 10
10.0
 20
421.14284323383282
 30
0.0
 11
11.0
 21
421.14284323383282
 31
0.0
  0
LINE
  5
6EB4
  8
0
 10
10.0
 20
420.14284323383282
 30
0.0
 11
11.0
 21
420.14284323383282
 31
0.0
  0
LINE
  5
6EB5
  8
0
 10
10.0
 20
418.14284323383282
 30
0.0
 11
11.0
 21
418.14284323383282
 31
0.0
  0
LINE
  5
6EB6
  8
0
 10
10.0
 20
429.14284323383282
 30
0.0
 11
13.0
 21
429.14284323383282
 31
0.0
  0
LINE
  5
6EB7
  8
0
 10
10.0
 20
434.14284323383282
 30
0.0
 11
12.0
 21
434.14284323383282
 31
0.0
  0
LINE
  5
6EB8
  8
0
 10
10.0
 20
433.14284323383282
 30
0.0
 11
11.0
 21
433.14284323383282
 31
0.0
  0
LINE
  5
6EB9
  8
0
 10
10.0
 20
432.14284323383282
 30
0.0
 11
11.0
 21
432.14284323383282
 31
0.0
  0
LINE
  5
6EBA
  8
0
 10
10.0
 20
431.14284323383282
 30
0.0
 11
11.0
 21
431.14284323383282
 31
0.0
  0
LINE
  5
6EBB
  8
0
 10
10.0
 20
426.14284323383282
 30
0.0
 11
11.0
 21
426.14284323383282
 31
0.0
  0
LINE
  5
6EBC
  8
0
 10
10.0
 20
427.14284323383282
 30
0.0
 11
11.0
 21
427.14284323383282
 31
0.0
  0
LINE
  5
6EBD
  8
0
 10
10.0
 20
428.14284323383282
 30
0.0
 11
11.0
 21
428.14284323383282
 31
0.0
  0
LINE
  5
6EBE
  8
0
 10
10.0
 20
430.14284323383282
 30
0.0
 11
11.0
 21
430.14284323383282
 31
0.0
  0
TEXT
  5
6EBF
  8
0
 10
14.99708977370635
 20
418.14284323383282
 30
0.0
 40
2.0
  1
24
 72
     2
 11
18.330423107039682
 21
419.14284323383271
 31
0.0
 73
     2
  0
TEXT
  5
6EC0
  8
0
 10
14.997089773706341
 20
428.14284323383282
 30
0.0
 40
2.0
  1
23
 72
     2
 11
18.330423107039682
 21
429.14284323383282
 31
0.0
 73
     2
  0
LINE
  5
6EC1
  8
0
 10
10.0
 20
439.14284323383282
 30
0.0
 11
13.0
 21
439.14284323383282
 31
0.0
  0
LINE
  5
6EC2
  8
0
 10
10.0
 20
443.14284323383282
 30
0.0
 11
11.0
 21
443.14284323383282
 31
0.0
  0
LINE
  5
6EC3
  8
0
 10
10.0
 20
442.14284323383282
 30
0.0
 11
11.0
 21
442.14284323383282
 31
0.0
  0
LINE
  5
6EC4
  8
0
 10
10.0
 20
441.14284323383282
 30
0.0
 11
11.0
 21
441.14284323383282
 31
0.0
  0
LINE
  5
6EC5
  8
0
 10
10.0
 20
440.14284323383271
 30
0.0
 11
11.0
 21
440.14284323383271
 31
0.0
  0
LINE
  5
6EC6
  8
0
 10
10.0
 20
437.14284323383282
 30
0.0
 11
11.0
 21
437.14284323383282
 31
0.0
  0
LINE
  5
6EC7
  8
0
 10
10.0
 20
435.14284323383282
 30
0.0
 11
11.0
 21
435.14284323383282
 31
0.0
  0
LINE
  5
6EC8
  8
0
 10
10.0
 20
436.14284323383271
 30
0.0
 11
11.0
 21
436.14284323383271
 31
0.0
  0
LINE
  5
6EC9
  8
0
 10
10.0
 20
438.14284323383282
 30
0.0
 11
11.0
 21
438.14284323383282
 31
0.0
  0
LINE
  5
6ECA
  8
0
 10
10.0
 20
449.14284323383282
 30
0.0
 11
13.0
 21
449.14284323383282
 31
0.0
  0
LINE
  5
6ECB
  8
0
 10
10.0
 20
450.14284323383282
 30
0.0
 11
11.0
 21
450.14284323383282
 31
0.0
  0
LINE
  5
6ECC
  8
0
 10
10.0
 20
451.14284323383282
 30
0.0
 11
11.0
 21
451.14284323383282
 31
0.0
  0
LINE
  5
6ECD
  8
0
 10
10.0
 20
452.14284323383282
 30
0.0
 11
11.0
 21
452.14284323383282
 31
0.0
  0
LINE
  5
6ECE
  8
0
 10
10.0
 20
448.14284323383271
 30
0.0
 11
11.0
 21
448.14284323383271
 31
0.0
  0
LINE
  5
6ECF
  8
0
 10
10.0
 20
444.14284323383271
 30
0.0
 11
12.0
 21
444.14284323383271
 31
0.0
  0
LINE
  5
6ED0
  8
0
 10
10.0
 20
445.14284323383282
 30
0.0
 11
11.0
 21
445.14284323383282
 31
0.0
  0
LINE
  5
6ED1
  8
0
 10
10.0
 20
447.14284323383282
 30
0.0
 11
11.0
 21
447.14284323383282
 31
0.0
  0
LINE
  5
6ED2
  8
0
 10
10.0
 20
446.14284323383282
 30
0.0
 11
11.0
 21
446.14284323383282
 31
0.0
  0
TEXT
  5
6ED3
  8
0
 10
14.997089773706341
 20
438.14284323383282
 30
0.0
 40
2.0
  1
22
 72
     2
 11
18.330423107039682
 21
439.14284323383282
 31
0.0
 73
     2
  0
TEXT
  5
6ED4
  8
0
 10
15.66375644037301
 20
448.14284323383271
 30
0.0
 40
2.0
  1
21
 72
     2
 11
18.330423107039682
 21
449.14284323383282
 31
0.0
 73
     2
  0
LINE
  5
6ED5
  8
0
 10
10.0
 20
458.14284323383282
 30
0.0
 11
11.0
 21
458.14284323383282
 31
0.0
  0
LINE
  5
6ED6
  8
0
 10
10.0
 20
457.14284323383282
 30
0.0
 11
11.0
 21
457.14284323383282
 31
0.0
  0
LINE
  5
6ED7
  8
0
 10
10.0
 20
453.14284323383282
 30
0.0
 11
11.0
 21
453.14284323383282
 31
0.0
  0
LINE
  5
6ED8
  8
0
 10
10.0
 20
454.14284323383282
 30
0.0
 11
12.0
 21
454.14284323383282
 31
0.0
  0
LINE
  5
6ED9
  8
0
 10
10.0
 20
456.14284323383259
 30
0.0
 11
11.0
 21
456.14284323383259
 31
0.0
  0
LINE
  5
6EDA
  8
0
 10
10.0
 20
455.14284323383282
 30
0.0
 11
11.0
 21
455.14284323383282
 31
0.0
  0
LINE
  5
6EDB
  8
0
 10
288.0
 20
360.14284323383282
 30
0.0
 11
287.0
 21
360.14284323383282
 31
0.0
  0
LINE
  5
6EDC
  8
0
 10
288.0
 20
369.14284323383282
 30
0.0
 11
285.0
 21
369.14284323383282
 31
0.0
  0
LINE
  5
6EDD
  8
0
 10
288.0
 20
368.14284323383282
 30
0.0
 11
287.0
 21
368.14284323383282
 31
0.0
  0
LINE
  5
6EDE
  8
0
 10
288.0
 20
367.14284323383282
 30
0.0
 11
287.0
 21
367.14284323383282
 31
0.0
  0
LINE
  5
6EDF
  8
0
 10
288.0
 20
366.14284323383282
 30
0.0
 11
287.0
 21
366.14284323383282
 31
0.0
  0
LINE
  5
6EE0
  8
0
 10
288.0
 20
365.14284323383282
 30
0.0
 11
287.0
 21
365.14284323383282
 31
0.0
  0
LINE
  5
6EE1
  8
0
 10
288.0
 20
364.14284323383282
 30
0.0
 11
286.0
 21
364.14284323383282
 31
0.0
  0
LINE
  5
6EE2
  8
0
 10
288.0
 20
361.14284323383282
 30
0.0
 11
287.0
 21
361.14284323383282
 31
0.0
  0
LINE
  5
6EE3
  8
0
 10
288.0
 20
362.14284323383282
 30
0.0
 11
287.0
 21
362.14284323383282
 31
0.0
  0
LINE
  5
6EE4
  8
0
 10
288.0
 20
363.14284323383282
 30
0.0
 11
287.0
 21
363.14284323383282
 31
0.0
  0
LINE
  5
6EE5
  8
0
 10
288.0
 20
377.14284323383282
 30
0.0
 11
287.0
 21
377.14284323383282
 31
0.0
  0
LINE
  5
6EE6
  8
0
 10
288.0
 20
376.14284323383282
 30
0.0
 11
287.0
 21
376.14284323383282
 31
0.0
  0
LINE
  5
6EE7
  8
0
 10
288.0
 20
375.14284323383282
 30
0.0
 11
287.0
 21
375.14284323383282
 31
0.0
  0
LINE
  5
6EE8
  8
0
 10
288.0
 20
374.14284323383282
 30
0.0
 11
286.0
 21
374.14284323383282
 31
0.0
  0
LINE
  5
6EE9
  8
0
 10
288.0
 20
372.14284323383282
 30
0.0
 11
287.0
 21
372.14284323383282
 31
0.0
  0
LINE
  5
6EEA
  8
0
 10
288.0
 20
373.14284323383282
 30
0.0
 11
287.0
 21
373.14284323383282
 31
0.0
  0
LINE
  5
6EEB
  8
0
 10
288.0
 20
370.14284323383282
 30
0.0
 11
287.0
 21
370.14284323383282
 31
0.0
  0
LINE
  5
6EEC
  8
0
 10
288.0
 20
371.14284323383282
 30
0.0
 11
287.0
 21
371.14284323383282
 31
0.0
  0
LINE
  5
6EED
  8
0
 10
288.0
 20
379.14284323383282
 30
0.0
 11
285.0
 21
379.14284323383282
 31
0.0
  0
LINE
  5
6EEE
  8
0
 10
288.0
 20
386.14284323383282
 30
0.0
 11
287.0
 21
386.14284323383282
 31
0.0
  0
LINE
  5
6EEF
  8
0
 10
288.0
 20
385.14284323383282
 30
0.0
 11
287.0
 21
385.14284323383282
 31
0.0
  0
LINE
  5
6EF0
  8
0
 10
288.0
 20
383.14284323383271
 30
0.0
 11
287.0
 21
383.14284323383271
 31
0.0
  0
LINE
  5
6EF1
  8
0
 10
288.0
 20
384.14284323383282
 30
0.0
 11
286.0
 21
384.14284323383282
 31
0.0
  0
LINE
  5
6EF2
  8
0
 10
288.0
 20
378.14284323383282
 30
0.0
 11
287.0
 21
378.14284323383282
 31
0.0
  0
LINE
  5
6EF3
  8
0
 10
288.0
 20
381.14284323383282
 30
0.0
 11
287.0
 21
381.14284323383282
 31
0.0
  0
LINE
  5
6EF4
  8
0
 10
288.0
 20
382.14284323383282
 30
0.0
 11
287.0
 21
382.14284323383282
 31
0.0
  0
LINE
  5
6EF5
  8
0
 10
288.0
 20
380.14284323383282
 30
0.0
 11
287.0
 21
380.14284323383282
 31
0.0
  0
LINE
  5
6EF6
  8
0
 10
288.0
 20
389.14284323383282
 30
0.0
 11
285.0
 21
389.14284323383282
 31
0.0
  0
LINE
  5
6EF7
  8
0
 10
288.0
 20
392.14284323383282
 30
0.0
 11
287.0
 21
392.14284323383282
 31
0.0
  0
LINE
  5
6EF8
  8
0
 10
288.0
 20
393.14284323383282
 30
0.0
 11
287.0
 21
393.14284323383282
 31
0.0
  0
LINE
  5
6EF9
  8
0
 10
288.0
 20
395.14284323383282
 30
0.0
 11
287.0
 21
395.14284323383282
 31
0.0
  0
LINE
  5
6EFA
  8
0
 10
288.0
 20
394.14284323383282
 30
0.0
 11
286.0
 21
394.14284323383282
 31
0.0
  0
LINE
  5
6EFB
  8
0
 10
288.0
 20
390.14284323383282
 30
0.0
 11
287.0
 21
390.14284323383282
 31
0.0
  0
LINE
  5
6EFC
  8
0
 10
288.0
 20
391.14284323383282
 30
0.0
 11
287.0
 21
391.14284323383282
 31
0.0
  0
LINE
  5
6EFD
  8
0
 10
288.0
 20
388.14284323383282
 30
0.0
 11
287.0
 21
388.14284323383282
 31
0.0
  0
LINE
  5
6EFE
  8
0
 10
288.0
 20
387.14284323383282
 30
0.0
 11
287.0
 21
387.14284323383282
 31
0.0
  0
LINE
  5
6EFF
  8
0
 10
288.0
 20
399.14284323383282
 30
0.0
 11
285.0
 21
399.14284323383282
 31
0.0
  0
LINE
  5
6F00
  8
0
 10
288.0
 20
400.14284323383282
 30
0.0
 11
287.0
 21
400.14284323383282
 31
0.0
  0
LINE
  5
6F01
  8
0
 10
288.0
 20
401.14284323383282
 30
0.0
 11
287.0
 21
401.14284323383282
 31
0.0
  0
LINE
  5
6F02
  8
0
 10
288.0
 20
402.14284323383282
 30
0.0
 11
287.0
 21
402.14284323383282
 31
0.0
  0
LINE
  5
6F03
  8
0
 10
288.0
 20
403.14284323383282
 30
0.0
 11
287.0
 21
403.14284323383282
 31
0.0
  0
LINE
  5
6F04
  8
0
 10
288.0
 20
398.14284323383282
 30
0.0
 11
287.0
 21
398.14284323383282
 31
0.0
  0
LINE
  5
6F05
  8
0
 10
288.0
 20
397.14284323383282
 30
0.0
 11
287.0
 21
397.14284323383282
 31
0.0
  0
LINE
  5
6F06
  8
0
 10
288.0
 20
396.14284323383282
 30
0.0
 11
287.0
 21
396.14284323383282
 31
0.0
  0
LINE
  5
6F07
  8
0
 10
288.0
 20
409.14284323383282
 30
0.0
 11
285.0
 21
409.14284323383282
 31
0.0
  0
LINE
  5
6F08
  8
0
 10
288.0
 20
410.14284323383282
 30
0.0
 11
287.0
 21
410.14284323383282
 31
0.0
  0
LINE
  5
6F09
  8
0
 10
288.0
 20
411.14284323383271
 30
0.0
 11
287.0
 21
411.14284323383271
 31
0.0
  0
LINE
  5
6F0A
  8
0
 10
288.0
 20
412.14284323383282
 30
0.0
 11
287.0
 21
412.14284323383282
 31
0.0
  0
LINE
  5
6F0B
  8
0
 10
288.0
 20
404.14284323383282
 30
0.0
 11
286.0
 21
404.14284323383282
 31
0.0
  0
LINE
  5
6F0C
  8
0
 10
288.0
 20
408.14284323383282
 30
0.0
 11
287.0
 21
408.14284323383282
 31
0.0
  0
LINE
  5
6F0D
  8
0
 10
288.0
 20
407.14284323383271
 30
0.0
 11
287.0
 21
407.14284323383271
 31
0.0
  0
LINE
  5
6F0E
  8
0
 10
288.0
 20
406.14284323383282
 30
0.0
 11
287.0
 21
406.14284323383282
 31
0.0
  0
LINE
  5
6F0F
  8
0
 10
288.0
 20
405.14284323383282
 30
0.0
 11
287.0
 21
405.14284323383282
 31
0.0
  0
LINE
  5
6F10
  8
0
 10
288.0
 20
419.14284323383271
 30
0.0
 11
285.0
 21
419.14284323383271
 31
0.0
  0
LINE
  5
6F11
  8
0
 10
288.0
 20
418.14284323383282
 30
0.0
 11
287.0
 21
418.14284323383282
 31
0.0
  0
LINE
  5
6F12
  8
0
 10
288.0
 20
420.14284323383282
 30
0.0
 11
287.0
 21
420.14284323383282
 31
0.0
  0
LINE
  5
6F13
  8
0
 10
288.0
 20
421.14284323383282
 30
0.0
 11
287.0
 21
421.14284323383282
 31
0.0
  0
LINE
  5
6F14
  8
0
 10
288.0
 20
413.14284323383282
 30
0.0
 11
287.0
 21
413.14284323383282
 31
0.0
  0
LINE
  5
6F15
  8
0
 10
288.0
 20
417.14284323383282
 30
0.0
 11
287.0
 21
417.14284323383282
 31
0.0
  0
LINE
  5
6F16
  8
0
 10
288.0
 20
416.14284323383282
 30
0.0
 11
287.0
 21
416.14284323383282
 31
0.0
  0
LINE
  5
6F17
  8
0
 10
288.0
 20
415.14284323383271
 30
0.0
 11
287.0
 21
415.14284323383271
 31
0.0
  0
LINE
  5
6F18
  8
0
 10
288.0
 20
414.14284323383282
 30
0.0
 11
286.0
 21
414.14284323383282
 31
0.0
  0
LINE
  5
6F19
  8
0
 10
288.0
 20
429.14284323383282
 30
0.0
 11
285.0
 21
429.14284323383282
 31
0.0
  0
LINE
  5
6F1A
  8
0
 10
288.0
 20
430.14284323383282
 30
0.0
 11
287.0
 21
430.14284323383282
 31
0.0
  0
LINE
  5
6F1B
  8
0
 10
288.0
 20
428.14284323383282
 30
0.0
 11
287.0
 21
428.14284323383282
 31
0.0
  0
LINE
  5
6F1C
  8
0
 10
288.0
 20
427.14284323383282
 30
0.0
 11
287.0
 21
427.14284323383282
 31
0.0
  0
LINE
  5
6F1D
  8
0
 10
288.0
 20
426.14284323383282
 30
0.0
 11
287.0
 21
426.14284323383282
 31
0.0
  0
LINE
  5
6F1E
  8
0
 10
288.0
 20
425.14284323383282
 30
0.0
 11
287.0
 21
425.14284323383282
 31
0.0
  0
LINE
  5
6F1F
  8
0
 10
288.0
 20
422.14284323383282
 30
0.0
 11
287.0
 21
422.14284323383282
 31
0.0
  0
LINE
  5
6F20
  8
0
 10
288.0
 20
423.14284323383271
 30
0.0
 11
287.0
 21
423.14284323383271
 31
0.0
  0
LINE
  5
6F21
  8
0
 10
288.0
 20
424.14284323383282
 30
0.0
 11
286.0
 21
424.14284323383282
 31
0.0
  0
LINE
  5
6F22
  8
0
 10
288.0
 20
438.14284323383282
 30
0.0
 11
287.0
 21
438.14284323383282
 31
0.0
  0
LINE
  5
6F23
  8
0
 10
288.0
 20
436.14284323383271
 30
0.0
 11
287.0
 21
436.14284323383271
 31
0.0
  0
LINE
  5
6F24
  8
0
 10
288.0
 20
435.14284323383282
 30
0.0
 11
287.0
 21
435.14284323383282
 31
0.0
  0
LINE
  5
6F25
  8
0
 10
288.0
 20
437.14284323383282
 30
0.0
 11
287.0
 21
437.14284323383282
 31
0.0
  0
LINE
  5
6F26
  8
0
 10
288.0
 20
431.14284323383282
 30
0.0
 11
287.0
 21
431.14284323383282
 31
0.0
  0
LINE
  5
6F27
  8
0
 10
288.0
 20
432.14284323383282
 30
0.0
 11
287.0
 21
432.14284323383282
 31
0.0
  0
LINE
  5
6F28
  8
0
 10
288.0
 20
433.14284323383282
 30
0.0
 11
287.0
 21
433.14284323383282
 31
0.0
  0
LINE
  5
6F29
  8
0
 10
288.0
 20
434.14284323383282
 30
0.0
 11
286.0
 21
434.14284323383282
 31
0.0
  0
LINE
  5
6F2A
  8
0
 10
288.0
 20
439.14284323383282
 30
0.0
 11
285.0
 21
439.14284323383282
 31
0.0
  0
LINE
  5
6F2B
  8
0
 10
288.0
 20
446.14284323383282
 30
0.0
 11
287.0
 21
446.14284323383282
 31
0.0
  0
LINE
  5
6F2C
  8
0
 10
288.0
 20
447.14284323383282
 30
0.0
 11
287.0
 21
447.14284323383282
 31
0.0
  0
LINE
  5
6F2D
  8
0
 10
288.0
 20
445.14284323383282
 30
0.0
 11
287.0
 21
445.14284323383282
 31
0.0
  0
LINE
  5
6F2E
  8
0
 10
288.0
 20
444.14284323383271
 30
0.0
 11
286.0
 21
444.14284323383271
 31
0.0
  0
LINE
  5
6F2F
  8
0
 10
288.0
 20
440.14284323383271
 30
0.0
 11
287.0
 21
440.14284323383271
 31
0.0
  0
LINE
  5
6F30
  8
0
 10
288.0
 20
441.14284323383282
 30
0.0
 11
287.0
 21
441.14284323383282
 31
0.0
  0
LINE
  5
6F31
  8
0
 10
288.0
 20
442.14284323383282
 30
0.0
 11
287.0
 21
442.14284323383282
 31
0.0
  0
LINE
  5
6F32
  8
0
 10
288.0
 20
443.14284323383282
 30
0.0
 11
287.0
 21
443.14284323383282
 31
0.0
  0
LINE
  5
6F33
  8
0
 10
288.0
 20
449.14284323383282
 30
0.0
 11
285.0
 21
449.14284323383282
 31
0.0
  0
LINE
  5
6F34
  8
0
 10
288.0
 20
455.14284323383282
 30
0.0
 11
287.0
 21
455.14284323383282
 31
0.0
  0
LINE
  5
6F35
  8
0
 10
288.0
 20
456.14284323383259
 30
0.0
 11
287.0
 21
456.14284323383259
 31
0.0
  0
LINE
  5
6F36
  8
0
 10
288.0
 20
454.14284323383282
 30
0.0
 11
286.0
 21
454.14284323383282
 31
0.0
  0
LINE
  5
6F37
  8
0
 10
288.0
 20
453.14284323383282
 30
0.0
 11
287.0
 21
453.14284323383282
 31
0.0
  0
LINE
  5
6F38
  8
0
 10
288.0
 20
448.14284323383271
 30
0.0
 11
287.0
 21
448.14284323383271
 31
0.0
  0
LINE
  5
6F39
  8
0
 10
288.0
 20
452.14284323383282
 30
0.0
 11
287.0
 21
452.14284323383282
 31
0.0
  0
LINE
  5
6F3A
  8
0
 10
288.0
 20
451.14284323383282
 30
0.0
 11
287.0
 21
451.14284323383282
 31
0.0
  0
LINE
  5
6F3B
  8
0
 10
288.0
 20
450.14284323383282
 30
0.0
 11
287.0
 21
450.14284323383282
 31
0.0
  0
LINE
  5
6F3C
  8
0
 10
288.0
 20
459.14284323383248
 30
0.0
 11
285.0
 21
459.14284323383248
 31
0.0
  0
LINE
  5
6F3D
  8
0
 10
288.0
 20
457.14284323383282
 30
0.0
 11
287.0
 21
457.14284323383282
 31
0.0
  0
LINE
  5
6F3E
  8
0
 10
288.0
 20
458.14284323383282
 30
0.0
 11
287.0
 21
458.14284323383282
 31
0.0
  0
LINE
  5
6F3F
  8
0
 10
288.0
 20
463.14284323383259
 30
0.0
 11
287.0
 21
463.14284323383259
 31
0.0
  0
LINE
  5
6F40
  8
0
 10
288.0
 20
462.14284323383282
 30
0.0
 11
287.0
 21
462.14284323383282
 31
0.0
  0
LINE
  5
6F41
  8
0
 10
288.0
 20
461.14284323383271
 30
0.0
 11
287.0
 21
461.14284323383271
 31
0.0
  0
LINE
  5
6F42
  8
0
 10
288.0
 20
464.14284323383259
 30
0.0
 11
286.0
 21
464.14284323383259
 31
0.0
  0
LINE
  5
6F43
  8
0
 10
288.0
 20
460.14284323383259
 30
0.0
 11
287.0
 21
460.14284323383259
 31
0.0
  0
LINE
  5
6F44
  8
0
 10
288.0
 20
469.14284323383259
 30
0.0
 11
285.0
 21
469.14284323383259
 31
0.0
  0
LINE
  5
6F45
  8
0
 10
288.0
 20
471.14284323383259
 30
0.0
 11
287.0
 21
471.14284323383259
 31
0.0
  0
LINE
  5
6F46
  8
0
 10
288.0
 20
470.14284323383282
 30
0.0
 11
287.0
 21
470.14284323383282
 31
0.0
  0
LINE
  5
6F47
  8
0
 10
288.0
 20
473.14284323383259
 30
0.0
 11
287.0
 21
473.14284323383259
 31
0.0
  0
LINE
  5
6F48
  8
0
 10
288.0
 20
472.14284323383259
 30
0.0
 11
287.0
 21
472.14284323383259
 31
0.0
  0
LINE
  5
6F49
  8
0
 10
288.0
 20
465.14284323383271
 30
0.0
 11
287.0
 21
465.14284323383271
 31
0.0
  0
LINE
  5
6F4A
  8
0
 10
288.0
 20
466.14284323383282
 30
0.0
 11
287.0
 21
466.14284323383282
 31
0.0
  0
LINE
  5
6F4B
  8
0
 10
288.0
 20
467.14284323383259
 30
0.0
 11
287.0
 21
467.14284323383259
 31
0.0
  0
LINE
  5
6F4C
  8
0
 10
288.0
 20
468.14284323383259
 30
0.0
 11
287.0
 21
468.14284323383259
 31
0.0
  0
LINE
  5
6F4D
  8
0
 10
288.0
 20
479.14284323383282
 30
0.0
 11
285.0
 21
479.14284323383282
 31
0.0
  0
LINE
  5
6F4E
  8
0
 10
288.0
 20
480.14284323383248
 30
0.0
 11
287.0
 21
480.14284323383248
 31
0.0
  0
LINE
  5
6F4F
  8
0
 10
288.0
 20
482.14284323383282
 30
0.0
 11
287.0
 21
482.14284323383282
 31
0.0
  0
LINE
  5
6F50
  8
0
 10
288.0
 20
481.14284323383259
 30
0.0
 11
287.0
 21
481.14284323383259
 31
0.0
  0
LINE
  5
6F51
  8
0
 10
288.0
 20
474.14284323383282
 30
0.0
 11
286.0
 21
474.14284323383282
 31
0.0
  0
LINE
  5
6F52
  8
0
 10
288.0
 20
475.14284323383282
 30
0.0
 11
287.0
 21
475.14284323383282
 31
0.0
  0
LINE
  5
6F53
  8
0
 10
288.0
 20
476.14284323383259
 30
0.0
 11
287.0
 21
476.14284323383259
 31
0.0
  0
LINE
  5
6F54
  8
0
 10
288.0
 20
477.14284323383259
 30
0.0
 11
287.0
 21
477.14284323383259
 31
0.0
  0
LINE
  5
6F55
  8
0
 10
288.0
 20
478.14284323383282
 30
0.0
 11
287.0
 21
478.14284323383282
 31
0.0
  0
LINE
  5
6F56
  8
0
 10
288.0
 20
489.14284323383259
 30
0.0
 11
285.0
 21
489.14284323383259
 31
0.0
  0
LINE
  5
6F57
  8
0
 10
288.0
 20
484.14284323383248
 30
0.0
 11
286.0
 21
484.14284323383248
 31
0.0
  0
LINE
  5
6F58
  8
0
 10
288.0
 20
483.14284323383282
 30
0.0
 11
287.0
 21
483.14284323383282
 31
0.0
  0
LINE
  5
6F59
  8
0
 10
288.0
 20
485.14284323383259
 30
0.0
 11
287.0
 21
485.14284323383259
 31
0.0
  0
LINE
  5
6F5A
  8
0
 10
288.0
 20
486.14284323383271
 30
0.0
 11
287.0
 21
486.14284323383271
 31
0.0
  0
LINE
  5
6F5B
  8
0
 10
288.0
 20
487.14284323383282
 30
0.0
 11
287.0
 21
487.14284323383282
 31
0.0
  0
LINE
  5
6F5C
  8
0
 10
288.0
 20
488.14284323383259
 30
0.0
 11
287.0
 21
488.14284323383259
 31
0.0
  0
LINE
  5
6F5D
  8
0
 10
288.0
 20
491.14284323383282
 30
0.0
 11
287.0
 21
491.14284323383282
 31
0.0
  0
LINE
  5
6F5E
  8
0
 10
288.0
 20
490.14284323383271
 30
0.0
 11
287.0
 21
490.14284323383271
 31
0.0
  0
LINE
  5
6F5F
  8
0
 10
288.0
 20
499.14284323383282
 30
0.0
 11
285.0
 21
499.14284323383282
 31
0.0
  0
LINE
  5
6F60
  8
0
 10
288.0
 20
496.14284323383259
 30
0.0
 11
287.0
 21
496.14284323383259
 31
0.0
  0
LINE
  5
6F61
  8
0
 10
288.0
 20
497.14284323383259
 30
0.0
 11
287.0
 21
497.14284323383259
 31
0.0
  0
LINE
  5
6F62
  8
0
 10
288.0
 20
498.14284323383259
 30
0.0
 11
287.0
 21
498.14284323383259
 31
0.0
  0
LINE
  5
6F63
  8
0
 10
288.0
 20
494.14284323383259
 30
0.0
 11
286.0
 21
494.14284323383259
 31
0.0
  0
LINE
  5
6F64
  8
0
 10
288.0
 20
495.14284323383282
 30
0.0
 11
287.0
 21
495.14284323383282
 31
0.0
  0
LINE
  5
6F65
  8
0
 10
288.0
 20
493.14284323383259
 30
0.0
 11
287.0
 21
493.14284323383259
 31
0.0
  0
LINE
  5
6F66
  8
0
 10
288.0
 20
492.14284323383259
 30
0.0
 11
287.0
 21
492.14284323383259
 31
0.0
  0
LINE
  5
6F67
  8
0
 10
288.0
 20
505.14284323383248
 30
0.0
 11
287.0
 21
505.14284323383248
 31
0.0
  0
LINE
  5
6F68
  8
0
 10
288.0
 20
506.14284323383259
 30
0.0
 11
287.0
 21
506.14284323383259
 31
0.0
  0
LINE
  5
6F69
  8
0
 10
288.0
 20
507.14284323383282
 30
0.0
 11
287.0
 21
507.14284323383282
 31
0.0
  0
LINE
  5
6F6A
  8
0
 10
288.0
 20
508.14284323383282
 30
0.0
 11
287.0
 21
508.14284323383282
 31
0.0
  0
LINE
  5
6F6B
  8
0
 10
288.0
 20
504.14284323383282
 30
0.0
 11
286.0
 21
504.14284323383282
 31
0.0
  0
LINE
  5
6F6C
  8
0
 10
288.0
 20
503.14284323383282
 30
0.0
 11
287.0
 21
503.14284323383282
 31
0.0
  0
LINE
  5
6F6D
  8
0
 10
288.0
 20
502.14284323383259
 30
0.0
 11
287.0
 21
502.14284323383259
 31
0.0
  0
LINE
  5
6F6E
  8
0
 10
288.0
 20
501.14284323383259
 30
0.0
 11
287.0
 21
501.14284323383259
 31
0.0
  0
LINE
  5
6F6F
  8
0
 10
288.0
 20
500.14284323383282
 30
0.0
 11
287.0
 21
500.14284323383282
 31
0.0
  0
LINE
  5
6F70
  8
0
 10
288.0
 20
509.14284323383248
 30
0.0
 11
285.0
 21
509.14284323383248
 31
0.0
  0
LINE
  5
6F71
  8
0
 10
288.0
 20
514.14284323383276
 30
0.0
 11
286.0
 21
514.14284323383276
 31
0.0
  0
LINE
  5
6F72
  8
0
 10
288.0
 20
515.14284323383265
 30
0.0
 11
287.0
 21
515.14284323383265
 31
0.0
  0
LINE
  5
6F73
  8
0
 10
288.0
 20
516.14284323383265
 30
0.0
 11
287.0
 21
516.14284323383265
 31
0.0
  0
LINE
  5
6F74
  8
0
 10
288.0
 20
517.14284323383265
 30
0.0
 11
287.0
 21
517.14284323383265
 31
0.0
  0
LINE
  5
6F75
  8
0
 10
288.0
 20
512.14284323383265
 30
0.0
 11
287.0
 21
512.14284323383265
 31
0.0
  0
LINE
  5
6F76
  8
0
 10
288.0
 20
511.14284323383271
 30
0.0
 11
287.0
 21
511.14284323383271
 31
0.0
  0
LINE
  5
6F77
  8
0
 10
288.0
 20
510.14284323383259
 30
0.0
 11
287.0
 21
510.14284323383259
 31
0.0
  0
LINE
  5
6F78
  8
0
 10
288.0
 20
513.14284323383265
 30
0.0
 11
287.0
 21
513.14284323383265
 31
0.0
  0
LINE
  5
6F79
  8
0
 10
288.0
 20
519.14284323383265
 30
0.0
 11
285.0
 21
519.14284323383265
 31
0.0
  0
LINE
  5
6F7A
  8
0
 10
288.0
 20
524.14284323383265
 30
0.0
 11
286.0
 21
524.14284323383265
 31
0.0
  0
LINE
  5
6F7B
  8
0
 10
288.0
 20
523.14284323383265
 30
0.0
 11
287.0
 21
523.14284323383265
 31
0.0
  0
LINE
  5
6F7C
  8
0
 10
288.0
 20
522.14284323383265
 30
0.0
 11
287.0
 21
522.14284323383265
 31
0.0
  0
LINE
  5
6F7D
  8
0
 10
288.0
 20
525.14284323383265
 30
0.0
 11
287.0
 21
525.14284323383265
 31
0.0
  0
LINE
  5
6F7E
  8
0
 10
288.0
 20
521.14284323383265
 30
0.0
 11
287.0
 21
521.14284323383265
 31
0.0
  0
LINE
  5
6F7F
  8
0
 10
288.0
 20
520.14284323383265
 30
0.0
 11
287.0
 21
520.14284323383265
 31
0.0
  0
LINE
  5
6F80
  8
0
 10
288.0
 20
518.14284323383276
 30
0.0
 11
287.0
 21
518.14284323383276
 31
0.0
  0
LINE
  5
6F81
  8
0
 10
288.0
 20
529.14284323383265
 30
0.0
 11
285.0
 21
529.14284323383265
 31
0.0
  0
LINE
  5
6F82
  8
0
 10
288.0
 20
534.14284323383265
 30
0.0
 11
286.0
 21
534.14284323383265
 31
0.0
  0
LINE
  5
6F83
  8
0
 10
288.0
 20
533.14284323383265
 30
0.0
 11
287.0
 21
533.14284323383265
 31
0.0
  0
LINE
  5
6F84
  8
0
 10
288.0
 20
532.14284323383265
 30
0.0
 11
287.0
 21
532.14284323383265
 31
0.0
  0
LINE
  5
6F85
  8
0
 10
288.0
 20
531.14284323383276
 30
0.0
 11
287.0
 21
531.14284323383276
 31
0.0
  0
LINE
  5
6F86
  8
0
 10
288.0
 20
526.14284323383265
 30
0.0
 11
287.0
 21
526.14284323383265
 31
0.0
  0
LINE
  5
6F87
  8
0
 10
288.0
 20
527.14284323383276
 30
0.0
 11
287.0
 21
527.14284323383276
 31
0.0
  0
LINE
  5
6F88
  8
0
 10
288.0
 20
528.14284323383265
 30
0.0
 11
287.0
 21
528.14284323383265
 31
0.0
  0
LINE
  5
6F89
  8
0
 10
288.0
 20
530.14284323383265
 30
0.0
 11
287.0
 21
530.14284323383265
 31
0.0
  0
LINE
  5
6F8A
  8
0
 10
288.0
 20
539.14284323383276
 30
0.0
 11
285.0
 21
539.14284323383276
 31
0.0
  0
LINE
  5
6F8B
  8
0
 10
288.0
 20
543.14284323383276
 30
0.0
 11
287.0
 21
543.14284323383276
 31
0.0
  0
LINE
  5
6F8C
  8
0
 10
288.0
 20
542.14284323383265
 30
0.0
 11
287.0
 21
542.14284323383265
 31
0.0
  0
LINE
  5
6F8D
  8
0
 10
288.0
 20
541.14284323383265
 30
0.0
 11
287.0
 21
541.14284323383265
 31
0.0
  0
LINE
  5
6F8E
  8
0
 10
288.0
 20
540.14284323383265
 30
0.0
 11
287.0
 21
540.14284323383265
 31
0.0
  0
LINE
  5
6F8F
  8
0
 10
288.0
 20
537.14284323383265
 30
0.0
 11
287.0
 21
537.14284323383265
 31
0.0
  0
LINE
  5
6F90
  8
0
 10
288.0
 20
535.14284323383276
 30
0.0
 11
287.0
 21
535.14284323383276
 31
0.0
  0
LINE
  5
6F91
  8
0
 10
288.0
 20
536.14284323383265
 30
0.0
 11
287.0
 21
536.14284323383265
 31
0.0
  0
LINE
  5
6F92
  8
0
 10
288.0
 20
538.14284323383265
 30
0.0
 11
287.0
 21
538.14284323383265
 31
0.0
  0
LINE
  5
6F93
  8
0
 10
288.0
 20
549.14284323383265
 30
0.0
 11
285.0
 21
549.14284323383265
 31
0.0
  0
LINE
  5
6F94
  8
0
 10
288.0
 20
550.14284323383265
 30
0.0
 11
287.0
 21
550.14284323383265
 31
0.0
  0
LINE
  5
6F95
  8
0
 10
288.0
 20
551.14284323383265
 30
0.0
 11
287.0
 21
551.14284323383265
 31
0.0
  0
LINE
  5
6F96
  8
0
 10
288.0
 20
552.14284323383276
 30
0.0
 11
287.0
 21
552.14284323383276
 31
0.0
  0
LINE
  5
6F97
  8
0
 10
288.0
 20
548.14284323383265
 30
0.0
 11
287.0
 21
548.14284323383265
 31
0.0
  0
LINE
  5
6F98
  8
0
 10
288.0
 20
544.14284323383265
 30
0.0
 11
286.0
 21
544.14284323383265
 31
0.0
  0
LINE
  5
6F99
  8
0
 10
288.0
 20
545.14284323383265
 30
0.0
 11
287.0
 21
545.14284323383265
 31
0.0
  0
LINE
  5
6F9A
  8
0
 10
288.0
 20
547.14284323383265
 30
0.0
 11
287.0
 21
547.14284323383265
 31
0.0
  0
LINE
  5
6F9B
  8
0
 10
288.0
 20
546.14284323383265
 30
0.0
 11
287.0
 21
546.14284323383265
 31
0.0
  0
LINE
  5
6F9C
  8
0
 10
288.0
 20
559.14284323383265
 30
0.0
 11
285.0
 21
559.14284323383265
 31
0.0
  0
LINE
  5
6F9D
  8
0
 10
288.0
 20
558.14284323383265
 30
0.0
 11
287.0
 21
558.14284323383265
 31
0.0
  0
LINE
  5
6F9E
  8
0
 10
288.0
 20
557.14284323383265
 30
0.0
 11
287.0
 21
557.14284323383265
 31
0.0
  0
LINE
  5
6F9F
  8
0
 10
288.0
 20
553.14284323383265
 30
0.0
 11
287.0
 21
553.14284323383265
 31
0.0
  0
LINE
  5
6FA0
  8
0
 10
288.0
 20
554.14284323383265
 30
0.0
 11
286.0
 21
554.14284323383265
 31
0.0
  0
LINE
  5
6FA1
  8
0
 10
288.0
 20
556.14284323383276
 30
0.0
 11
287.0
 21
556.14284323383276
 31
0.0
  0
LINE
  5
6FA2
  8
0
 10
288.0
 20
555.14284323383265
 30
0.0
 11
287.0
 21
555.14284323383265
 31
0.0
  0
LINE
  5
6FA3
  8
0
 10
288.0
 20
560.14284323383276
 30
0.0
 11
287.0
 21
560.14284323383276
 31
0.0
  0
LINE
  5
6FA4
  8
0
 10
288.0
 20
569.14284323383265
 30
0.0
 11
285.0
 21
569.14284323383265
 31
0.0
  0
LINE
  5
6FA5
  8
0
 10
288.0
 20
568.14284323383276
 30
0.0
 11
287.0
 21
568.14284323383276
 31
0.0
  0
LINE
  5
6FA6
  8
0
 10
288.0
 20
567.14284323383265
 30
0.0
 11
287.0
 21
567.14284323383265
 31
0.0
  0
LINE
  5
6FA7
  8
0
 10
288.0
 20
566.14284323383265
 30
0.0
 11
287.0
 21
566.14284323383265
 31
0.0
  0
LINE
  5
6FA8
  8
0
 10
288.0
 20
565.14284323383265
 30
0.0
 11
287.0
 21
565.14284323383265
 31
0.0
  0
LINE
  5
6FA9
  8
0
 10
288.0
 20
564.14284323383276
 30
0.0
 11
286.0
 21
564.14284323383276
 31
0.0
  0
LINE
  5
6FAA
  8
0
 10
288.0
 20
561.14284323383265
 30
0.0
 11
287.0
 21
561.14284323383265
 31
0.0
  0
LINE
  5
6FAB
  8
0
 10
288.0
 20
562.14284323383265
 30
0.0
 11
287.0
 21
562.14284323383265
 31
0.0
  0
LINE
  5
6FAC
  8
0
 10
288.0
 20
563.14284323383265
 30
0.0
 11
287.0
 21
563.14284323383265
 31
0.0
  0
LINE
  5
6FAD
  8
0
 10
288.0
 20
578.14284323383265
 30
0.0
 11
287.0
 21
578.14284323383265
 31
0.0
  0
LINE
  5
6FAE
  8
0
 10
288.0
 20
577.14284323383276
 30
0.0
 11
287.0
 21
577.14284323383276
 31
0.0
  0
LINE
  5
6FAF
  8
0
 10
288.0
 20
576.14284323383265
 30
0.0
 11
287.0
 21
576.14284323383265
 31
0.0
  0
LINE
  5
6FB0
  8
0
 10
288.0
 20
575.14284323383265
 30
0.0
 11
287.0
 21
575.14284323383265
 31
0.0
  0
LINE
  5
6FB1
  8
0
 10
288.0
 20
572.14284323383265
 30
0.0
 11
287.0
 21
572.14284323383265
 31
0.0
  0
LINE
  5
6FB2
  8
0
 10
288.0
 20
573.14284323383265
 30
0.0
 11
287.0
 21
573.14284323383265
 31
0.0
  0
LINE
  5
6FB3
  8
0
 10
288.0
 20
574.14284323383265
 30
0.0
 11
286.0
 21
574.14284323383265
 31
0.0
  0
LINE
  5
6FB4
  8
0
 10
288.0
 20
570.14284323383265
 30
0.0
 11
287.0
 21
570.14284323383265
 31
0.0
  0
LINE
  5
6FB5
  8
0
 10
288.0
 20
571.14284323383265
 30
0.0
 11
287.0
 21
571.14284323383265
 31
0.0
  0
LINE
  5
6FB6
  8
0
 10
288.0
 20
579.14284323383265
 30
0.0
 11
285.0
 21
579.14284323383265
 31
0.0
  0
LINE
  5
6FB7
  8
0
 10
288.0
 20
581.14284323383276
 30
0.0
 11
287.0
 21
581.14284323383276
 31
0.0
  0
LINE
  5
6FB8
  8
0
 10
288.0
 20
582.14284323383265
 30
0.0
 11
287.0
 21
582.14284323383265
 31
0.0
  0
LINE
  5
6FB9
  8
0
 10
288.0
 20
586.14284323383265
 30
0.0
 11
287.0
 21
586.14284323383265
 31
0.0
  0
LINE
  5
6FBA
  8
0
 10
288.0
 20
585.14284323383276
 30
0.0
 11
287.0
 21
585.14284323383276
 31
0.0
  0
LINE
  5
6FBB
  8
0
 10
288.0
 20
583.14284323383265
 30
0.0
 11
287.0
 21
583.14284323383265
 31
0.0
  0
LINE
  5
6FBC
  8
0
 10
288.0
 20
584.14284323383265
 30
0.0
 11
286.0
 21
584.14284323383265
 31
0.0
  0
LINE
  5
6FBD
  8
0
 10
288.0
 20
580.14284323383265
 30
0.0
 11
287.0
 21
580.14284323383265
 31
0.0
  0
LINE
  5
6FBE
  8
0
 10
288.0
 20
589.14284323383276
 30
0.0
 11
285.0
 21
589.14284323383276
 31
0.0
  0
LINE
  5
6FBF
  8
0
 10
288.0
 20
590.14284323383265
 30
0.0
 11
287.0
 21
590.14284323383265
 31
0.0
  0
LINE
  5
6FC0
  8
0
 10
288.0
 20
591.14284323383265
 30
0.0
 11
287.0
 21
591.14284323383265
 31
0.0
  0
LINE
  5
6FC1
  8
0
 10
288.0
 20
592.14284323383265
 30
0.0
 11
287.0
 21
592.14284323383265
 31
0.0
  0
LINE
  5
6FC2
  8
0
 10
288.0
 20
593.14284323383276
 30
0.0
 11
287.0
 21
593.14284323383276
 31
0.0
  0
LINE
  5
6FC3
  8
0
 10
288.0
 20
595.14284323383265
 30
0.0
 11
287.0
 21
595.14284323383265
 31
0.0
  0
LINE
  5
6FC4
  8
0
 10
288.0
 20
594.14284323383265
 30
0.0
 11
286.0
 21
594.14284323383265
 31
0.0
  0
LINE
  5
6FC5
  8
0
 10
288.0
 20
588.14284323383265
 30
0.0
 11
287.0
 21
588.14284323383265
 31
0.0
  0
LINE
  5
6FC6
  8
0
 10
288.0
 20
587.14284323383265
 30
0.0
 11
287.0
 21
587.14284323383265
 31
0.0
  0
LINE
  5
6FC7
  8
0
 10
288.0
 20
599.14284323383265
 30
0.0
 11
285.0
 21
599.14284323383265
 31
0.0
  0
LINE
  5
6FC8
  8
0
 10
288.0
 20
598.14284323383265
 30
0.0
 11
287.0
 21
598.14284323383265
 31
0.0
  0
LINE
  5
6FC9
  8
0
 10
288.0
 20
597.14284323383265
 30
0.0
 11
287.0
 21
597.14284323383265
 31
0.0
  0
LINE
  5
6FCA
  8
0
 10
288.0
 20
600.14284323383265
 30
0.0
 11
287.0
 21
600.14284323383265
 31
0.0
  0
LINE
  5
6FCB
  8
0
 10
288.0
 20
601.14284323383265
 30
0.0
 11
287.0
 21
601.14284323383265
 31
0.0
  0
LINE
  5
6FCC
  8
0
 10
288.0
 20
602.14284323383276
 30
0.0
 11
287.0
 21
602.14284323383276
 31
0.0
  0
LINE
  5
6FCD
  8
0
 10
288.0
 20
603.14284323383265
 30
0.0
 11
287.0
 21
603.14284323383265
 31
0.0
  0
LINE
  5
6FCE
  8
0
 10
288.0
 20
604.14284323383265
 30
0.0
 11
286.0
 21
604.14284323383265
 31
0.0
  0
LINE
  5
6FCF
  8
0
 10
288.0
 20
596.14284323383265
 30
0.0
 11
287.0
 21
596.14284323383265
 31
0.0
  0
LINE
  5
6FD0
  8
0
 10
288.0
 20
609.14284323383265
 30
0.0
 11
285.0
 21
609.14284323383265
 31
0.0
  0
LINE
  5
6FD1
  8
0
 10
288.0
 20
613.14284323383265
 30
0.0
 11
287.0
 21
613.14284323383265
 31
0.0
  0
LINE
  5
6FD2
  8
0
 10
288.0
 20
608.14284323383265
 30
0.0
 11
287.0
 21
608.14284323383265
 31
0.0
  0
LINE
  5
6FD3
  8
0
 10
288.0
 20
607.14284323383265
 30
0.0
 11
287.0
 21
607.14284323383265
 31
0.0
  0
LINE
  5
6FD4
  8
0
 10
288.0
 20
606.14284323383276
 30
0.0
 11
287.0
 21
606.14284323383276
 31
0.0
  0
LINE
  5
6FD5
  8
0
 10
288.0
 20
605.14284323383265
 30
0.0
 11
287.0
 21
605.14284323383265
 31
0.0
  0
LINE
  5
6FD6
  8
0
 10
288.0
 20
610.14284323383276
 30
0.0
 11
287.0
 21
610.14284323383276
 31
0.0
  0
LINE
  5
6FD7
  8
0
 10
288.0
 20
611.14284323383265
 30
0.0
 11
287.0
 21
611.14284323383265
 31
0.0
  0
LINE
  5
6FD8
  8
0
 10
288.0
 20
612.14284323383265
 30
0.0
 11
287.0
 21
612.14284323383265
 31
0.0
  0
LINE
  5
6FD9
  8
0
 10
288.0
 20
619.14284323383265
 30
0.0
 11
285.0
 21
619.14284323383265
 31
0.0
  0
LINE
  5
6FDA
  8
0
 10
288.0
 20
618.14284323383276
 30
0.0
 11
287.0
 21
618.14284323383276
 31
0.0
  0
LINE
  5
6FDB
  8
0
 10
288.0
 20
617.14284323383265
 30
0.0
 11
287.0
 21
617.14284323383265
 31
0.0
  0
LINE
  5
6FDC
  8
0
 10
288.0
 20
616.14284323383265
 30
0.0
 11
287.0
 21
616.14284323383265
 31
0.0
  0
LINE
  5
6FDD
  8
0
 10
288.0
 20
615.14284323383265
 30
0.0
 11
287.0
 21
615.14284323383265
 31
0.0
  0
LINE
  5
6FDE
  8
0
 10
288.0
 20
620.14284323383265
 30
0.0
 11
287.0
 21
620.14284323383265
 31
0.0
  0
LINE
  5
6FDF
  8
0
 10
288.0
 20
621.14284323383265
 30
0.0
 11
287.0
 21
621.14284323383265
 31
0.0
  0
LINE
  5
6FE0
  8
0
 10
288.0
 20
614.14284323383276
 30
0.0
 11
286.0
 21
614.14284323383276
 31
0.0
  0
LINE
  5
6FE1
  8
0
 10
288.0
 20
629.14284323383265
 30
0.0
 11
285.0
 21
629.14284323383265
 31
0.0
  0
LINE
  5
6FE2
  8
0
 10
288.0
 20
630.14284323383265
 30
0.0
 11
287.0
 21
630.14284323383265
 31
0.0
  0
LINE
  5
6FE3
  8
0
 10
288.0
 20
625.14284323383265
 30
0.0
 11
287.0
 21
625.14284323383265
 31
0.0
  0
LINE
  5
6FE4
  8
0
 10
288.0
 20
622.14284323383276
 30
0.0
 11
287.0
 21
622.14284323383276
 31
0.0
  0
LINE
  5
6FE5
  8
0
 10
288.0
 20
623.14284323383265
 30
0.0
 11
287.0
 21
623.14284323383265
 31
0.0
  0
LINE
  5
6FE6
  8
0
 10
288.0
 20
628.14284323383265
 30
0.0
 11
287.0
 21
628.14284323383265
 31
0.0
  0
LINE
  5
6FE7
  8
0
 10
288.0
 20
627.14284323383276
 30
0.0
 11
287.0
 21
627.14284323383276
 31
0.0
  0
LINE
  5
6FE8
  8
0
 10
288.0
 20
626.14284323383265
 30
0.0
 11
287.0
 21
626.14284323383265
 31
0.0
  0
LINE
  5
6FE9
  8
0
 10
288.0
 20
624.14284323383265
 30
0.0
 11
286.0
 21
624.14284323383265
 31
0.0
  0
LINE
  5
6FEA
  8
0
 10
288.0
 20
639.14284323383276
 30
0.0
 11
285.0
 21
639.14284323383276
 31
0.0
  0
LINE
  5
6FEB
  8
0
 10
288.0
 20
638.14284323383265
 30
0.0
 11
287.0
 21
638.14284323383265
 31
0.0
  0
LINE
  5
6FEC
  8
0
 10
288.0
 20
636.14284323383265
 30
0.0
 11
287.0
 21
636.14284323383265
 31
0.0
  0
LINE
  5
6FED
  8
0
 10
288.0
 20
635.14284323383276
 30
0.0
 11
287.0
 21
635.14284323383276
 31
0.0
  0
LINE
  5
6FEE
  8
0
 10
288.0
 20
631.14284323383276
 30
0.0
 11
287.0
 21
631.14284323383276
 31
0.0
  0
LINE
  5
6FEF
  8
0
 10
288.0
 20
632.14284323383265
 30
0.0
 11
287.0
 21
632.14284323383265
 31
0.0
  0
LINE
  5
6FF0
  8
0
 10
288.0
 20
633.14284323383265
 30
0.0
 11
287.0
 21
633.14284323383265
 31
0.0
  0
LINE
  5
6FF1
  8
0
 10
288.0
 20
637.14284323383265
 30
0.0
 11
287.0
 21
637.14284323383265
 31
0.0
  0
LINE
  5
6FF2
  8
0
 10
288.0
 20
634.14284323383265
 30
0.0
 11
286.0
 21
634.14284323383265
 31
0.0
  0
LINE
  5
6FF3
  8
0
 10
288.0
 20
646.14284323383265
 30
0.0
 11
287.0
 21
646.14284323383265
 31
0.0
  0
LINE
  5
6FF4
  8
0
 10
288.0
 20
647.14284323383276
 30
0.0
 11
287.0
 21
647.14284323383276
 31
0.0
  0
LINE
  5
6FF5
  8
0
 10
288.0
 20
645.14284323383265
 30
0.0
 11
287.0
 21
645.14284323383265
 31
0.0
  0
LINE
  5
6FF6
  8
0
 10
288.0
 20
640.14284323383265
 30
0.0
 11
287.0
 21
640.14284323383265
 31
0.0
  0
LINE
  5
6FF7
  8
0
 10
288.0
 20
641.14284323383265
 30
0.0
 11
287.0
 21
641.14284323383265
 31
0.0
  0
LINE
  5
6FF8
  8
0
 10
288.0
 20
642.14284323383265
 30
0.0
 11
287.0
 21
642.14284323383265
 31
0.0
  0
LINE
  5
6FF9
  8
0
 10
288.0
 20
643.14284323383276
 30
0.0
 11
287.0
 21
643.14284323383276
 31
0.0
  0
LINE
  5
6FFA
  8
0
 10
288.0
 20
644.14284323383265
 30
0.0
 11
286.0
 21
644.14284323383265
 31
0.0
  0
LINE
  5
6FFB
  8
0
 10
288.0
 20
649.14284323383265
 30
0.0
 11
285.0
 21
649.14284323383265
 31
0.0
  0
LINE
  5
6FFC
  8
0
 10
288.0
 20
655.14284323383265
 30
0.0
 11
287.0
 21
655.14284323383265
 31
0.0
  0
LINE
  5
6FFD
  8
0
 10
288.0
 20
656.14284323383276
 30
0.0
 11
287.0
 21
656.14284323383276
 31
0.0
  0
LINE
  5
6FFE
  8
0
 10
288.0
 20
654.14284323383265
 30
0.0
 11
286.0
 21
654.14284323383265
 31
0.0
  0
LINE
  5
6FFF
  8
0
 10
288.0
 20
648.14284323383265
 30
0.0
 11
287.0
 21
648.14284323383265
 31
0.0
  0
LINE
  5
7000
  8
0
 10
288.0
 20
653.14284323383265
 30
0.0
 11
287.0
 21
653.14284323383265
 31
0.0
  0
LINE
  5
7001
  8
0
 10
288.0
 20
652.14284323383276
 30
0.0
 11
287.0
 21
652.14284323383276
 31
0.0
  0
LINE
  5
7002
  8
0
 10
288.0
 20
651.14284323383265
 30
0.0
 11
287.0
 21
651.14284323383265
 31
0.0
  0
LINE
  5
7003
  8
0
 10
288.0
 20
650.14284323383265
 30
0.0
 11
287.0
 21
650.14284323383265
 31
0.0
  0
LINE
  5
7004
  8
0
 10
288.0
 20
657.14284323383265
 30
0.0
 11
287.0
 21
657.14284323383265
 31
0.0
  0
LINE
  5
7005
  8
0
 10
288.0
 20
658.14284323383265
 30
0.0
 11
287.0
 21
658.14284323383265
 31
0.0
  0
POLYLINE
  5
7006
  8
0
 66
     1
 10
0.0
 20
0.0
 30
0.0
 70
     1
  0
VERTEX
  5
79BF
  8
0
 10
9.9999999999999254
 20
9.1428432338327639
 30
0.0
  0
VERTEX
  5
79C0
  8
0
 10
288.0
 20
9.1428432338327639
 30
0.0
  0
VERTEX
  5
79C1
  8
0
 10
288.0
 20
154.14284323383259
 30
0.0
  0
VERTEX
  5
79C2
  8
0
 10
9.9999999999999254
 20
154.14284323383259
 30
0.0
  0
SEQEND
  5
79C3
  8
0
  0
TEXT
  5
700C
  8
0
 10
138.10298273989741
 20
135.11834866931679
 30
0.0
 40
3.0
  1
ケーシング下端深度
 11
138.10298273989741
 21
136.61834866931679
 31
0.0
 73
     2
  0
TEXT
  5
700D
  8
0
 10
138.10298273989741
 20
57.518765303163661
 30
0.0
 40
2.5
  1
崩壊、逸水、湧水、その他
 11
138.10298273989741
 21
58.768765303163661
 31
0.0
 73
     2
  0
TEXT
  5
700E
  8
0
 10
138.10298273989741
 20
62.998765303163673
 30
0.0
 40
3.0
  1
孔壁保護の実施理由
 11
138.10298273989741
 21
64.49876530316368
 31
0.0
 73
     2
  0
TEXT
  5
700F
  8
0
 10
138.10298273989741
 20
119.54294929107149
 30
0.0
 40
2.5
  1
作業終了時の深度を記す
 11
138.10298273989741
 21
120.79294929107149
 31
0.0
 73
     2
  0
TEXT
  5
7011
  8
0
 10
138.10298273989741
 20
123.90834866931679
 30
0.0
 40
2.5
  1
ケーシング下端深度は
 11
138.10298273989741
 21
125.15834866931679
 31
0.0
 73
     2
  0
TEXT
  5
7012
  8
0
 10
138.10298273989741
 20
139.48650310664451
 30
0.0
 40
3.0
  1
作業日毎の孔内水位
 11
138.10298273989741
 21
140.98650310664459
 31
0.0
 73
     2
  0
TEXT
  5
7013
  8
0
 10
138.10298273989741
 20
105.86190702442551
 30
0.0
 40
3.0
  1
孔壁保護の種類
 11
138.10298273989741
 21
107.36190702442551
 31
0.0
 73
     2
  0
TEXT
  5
7014
  8
0
 10
25.647063048253528
 20
21.896728298042941
 30
0.0
 40
2.5
  1
スライムも含む（記事欄に理由を書く）
 11
25.647063048253528
 21
23.146728298042941
 31
0.0
 73
     2
  0
TEXT
  5
7015
  8
0
 10
25.647063048253528
 20
27.12272829804294
 30
0.0
 40
2.5
  1
コアの採取ができないもの
 11
25.647063048253528
 21
28.37272829804294
 31
0.0
 73
     2
  0
TEXT
  5
7016
  8
0
 10
25.647063048253528
 20
38.785233207056081
 30
0.0
 40
2.5
  1
主として粘土状のもの
 11
25.647063048253528
 21
40.035233207056081
 31
0.0
 73
     2
  0
TEXT
  5
7017
  8
0
 10
25.647063048253528
 20
78.232614987147713
 30
0.0
 40
2.5
  1
の一部が認められるもの
 11
25.647063048253528
 21
79.482614987147713
 31
0.0
 73
     2
  0
TEXT
  5
7018
  8
0
 10
25.647063048253528
 20
83.295295855473455
 30
0.0
 40
2.5
  1
片状コアでかつコアの外周
 11
25.647063048253528
 21
84.545295855473455
 31
0.0
 73
     2
  0
TEXT
  5
7019
  8
0
 10
25.647063048253528
 20
68.785233207056081
 30
0.0
 40
2.5
  1
主として角れき状のもの
 11
25.647063048253528
 21
70.035233207056081
 31
0.0
 73
     2
  0
TEXT
  5
701A
  8
0
 10
25.647063048253528
 20
88.521289811580118
 30
0.0
 40
2.5
  1
長さが5cm以下の棒状～
 11
25.647063048253528
 21
89.771289811580118
 31
0.0
 73
     2
  0
TEXT
  5
701B
  8
0
 10
25.647063048253528
 20
101.25431336665009
 30
0.0
 40
2.5
  1
長さが15～5cmの棒状～
 11
25.647063048253528
 21
102.50431336665009
 31
0.0
 73
     2
  0
TEXT
  5
701C
  8
0
 10
25.647063048253528
 20
113.785233207056
 30
0.0
 40
2.5
  1
長さが50～15cmの棒状コア
 11
25.647063048253528
 21
115.035233207056
 31
0.0
 73
     2
  0
TEXT
  5
701D
  8
0
 10
25.647063048253528
 20
128.785233207056
 30
0.0
 40
2.5
  1
長さが50cm以上の棒状コア
 11
25.647063048253528
 21
130.035233207056
 31
0.0
 73
     2
  0
INSERT
  5
701E
  8
0
  2
*X0
 10
0.0
 20
0.0
 30
0.0
1001
ACAD
1000
HATCH
1002
{
1070
    19
1000
AR-SAND
1040
0.02
1040
0.0
1000
R14_HATCH_DATA
1000
5973
1011
1.0
1021
0.0
1031
0.0
1021
0.0
1031
0.0
1011
0.0
1021
0.0
1031
0.0
1021
0.9999999999999992
1031
0.0
1011
0.0
1021
0.0
1031
0.0
1021
0.0
1031
1.0
1040
0.0
1010
0.0
1020
0.0
1030
1.0
1000
AR-SAND
1070
     0
1070
     0
1071
        3
1071
        7
1070
     1
1070
     1
1071
        4
1040
21.647063048253639
1040
55.048641925933197
1040
-1.0
1040
18.647063048253511
1040
55.048641925933161
1040
0.0
1040
18.647063048253511
1040
50.035233207056073
1040
0.0
1040
21.647063048253742
1040
50.035233207056102
1040
0.0
1071
        0
1071
        7
1070
     1
1070
     1
1071
        4
1040
21.6470630482535
1040
60.035233207056073
1040
0.0
1040
18.647063048253511
1040
60.035233207056073
1040
0.0
1040
18.647063048253511
1040
55.048641925933161
1040
-1.0
1040
21.647063048253639
1040
55.048641925933197
1040
0.0
1071
        0
1071
      137
1071
        4
1070
     1
1040
18.390717870588531
1040
53.678083550298652
1040
21.90340822591849
1040
53.678083550298652
1070
     1
1040
21.90340822591849
1040
53.678083550298652
1040
21.90340822591849
1040
56.419200301567713
1070
     1
1040
21.90340822591849
1040
56.419200301567713
1040
18.390717870588531
1040
56.419200301567713
1070
     1
1040
18.390717870588531
1040
56.419200301567713
1040
18.390717870588531
1040
53.678083550298652
1071
        0
1070
     0
1070
     1
1040
0.0
1040
0.02
1070
     0
1070
     4
1040
0.6544984694978738
1040
6.5824899347211954
1040
-21.43770575382041
1040
-0.0320006259196809
1040
0.9788264746586847
1070
     6
1040
0.0
1040
-0.7721600000000001
1040
0.0
1040
-0.8636000000000002
1040
0.0
1040
-0.8255
1040
0.1308996938995747
1040
6.5824899347211954
1040
-21.43770575382041
1040
0.8990465662760053
1040
1.433650201136708
1070
     6
1040
0.0
1040
-0.4165600000000003
1040
0.0
1040
-0.69596
1040
0.0
1040
-0.2667000000000001
1040
5.715953300281428
1040
5.9576499347211884
1040
-21.43770575382041
1040
1.581984740482915
1040
0.0028743693570914
1070
     6
1040
0.0
1040
-0.254
1040
0.0
1040
-0.9144
1040
0.0
1040
-1.1937999999999991
1040
5.5414203750819961
1040
5.9576499347211884
1040
-21.43770575382041
1040
1.5271129049445931
1040
0.4458586465144326
1070
     6
1040
0.0
1040
-0.127
1040
0.0
1040
-0.59944
1040
0.0
1040
-0.6858
1040
0.0228990998451284
1071
        2
1040
19.785330770216142
1040
51.7808909866677
1040
0.0
1040
19.876965288891991
1040
57.253776867450583
1040
0.0
1002
}
  0
CIRCLE
  5
701F
  8
0
 10
20.147063048253511
 20
55.048641925933168
 30
0.0
 40
1.5
  0
TEXT
  5
7020
  8
0
 10
25.647063048253528
 20
53.785233207056081
 30
0.0
 40
2.5
  1
主として砂状のもの
 11
25.647063048253528
 21
55.035233207056081
 31
0.0
 73
     2
  0
LINE
  5
7021
  8
0
 10
17.647063048253511
 20
60.035233207056081
 30
0.0
 11
17.647063048253511
 21
50.035233207056081
 31
0.0
  0
LINE
  5
7022
  8
0
 10
22.647063048253511
 20
60.035233207056081
 30
0.0
 11
22.647063048253511
 21
50.035233207056081
 31
0.0
  0
LINE
  5
7023
  8
0
 10
18.647063048253511
 20
60.035233207056081
 30
0.0
 11
18.647063048253511
 21
50.035233207056081
 31
0.0
  0
LINE
  5
7024
  8
0
 10
21.647063048253528
 20
60.035233207056081
 30
0.0
 11
21.647063048253749
 21
50.035233207056081
 31
0.0
  0
POLYLINE
  5
7025
  8
0
 66
     1
 10
0.0
 20
0.0
 30
0.0
 70
     1
  0
VERTEX
  5
79C4
  8
0
 10
18.647063048253511
 20
50.035233207056081
 30
0.0
  0
VERTEX
  5
79C5
  8
0
 10
21.647063048253528
 20
50.035233207056081
 30
0.0
  0
VERTEX
  5
79C6
  8
0
 10
21.647063048253528
 20
60.035233207056081
 30
0.0
  0
VERTEX
  5
79C7
  8
0
 10
18.647063048253511
 20
60.035233207056081
 30
0.0
  0
SEQEND
  5
79C8
  8
0
  0
CIRCLE
  5
702B
  8
0
 10
20.147063048253511
 20
25.048641925933161
 30
0.0
 40
1.5
  0
CIRCLE
  5
702C
  8
0
 10
20.147063048253511
 20
40.048641925933147
 30
0.0
 40
1.5
  0
LINE
  5
702D
  8
0
 10
20.647063048253461
 20
45.035233207056081
 30
0.0
 11
21.647063048253528
 21
45.035233207056081
 31
0.0
  0
LINE
  5
702E
  8
0
 10
19.647063048253528
 20
44.035233207056081
 30
0.0
 11
21.143182696511872
 21
44.035233207056081
 31
0.0
  0
LINE
  5
702F
  8
0
 10
20.647063048253461
 20
37.035233207056081
 30
0.0
 11
21.647063048253528
 21
37.035233207056081
 31
0.0
  0
LINE
  5
7030
  8
0
 10
20.647063048253461
 20
43.035233207056073
 30
0.0
 11
21.647063048253528
 21
43.035233207056073
 31
0.0
  0
LINE
  5
7031
  8
0
 10
19.647063048253528
 20
36.035233207056081
 30
0.0
 11
21.143182696511872
 21
36.035233207056081
 31
0.0
  0
LINE
  5
7032
  8
0
 10
19.647063048253528
 20
38.035233207056081
 30
0.0
 11
21.143182696511872
 21
38.035233207056081
 31
0.0
  0
LINE
  5
7033
  8
0
 10
19.647063048253528
 20
42.035233207056081
 30
0.0
 11
21.143182696511872
 21
42.035233207056081
 31
0.0
  0
LINE
  5
7034
  8
0
 10
20.647063048253461
 20
35.035233207056081
 30
0.0
 11
21.647063048253528
 21
35.035233207056081
 31
0.0
  0
LINE
  5
7035
  8
0
 10
17.647063048253511
 20
45.035233207056081
 30
0.0
 11
17.647063048253511
 21
35.035233207056081
 31
0.0
  0
LINE
  5
7036
  8
0
 10
18.647063048253511
 20
45.035233207056081
 30
0.0
 11
18.647063048253511
 21
35.035233207056081
 31
0.0
  0
LINE
  5
7037
  8
0
 10
17.647063048253511
 20
30.035233207056081
 30
0.0
 11
17.647063048253511
 21
20.035233207056059
 31
0.0
  0
LINE
  5
7038
  8
0
 10
18.647063048253511
 20
36.035233207056081
 30
0.0
 11
19.143182696511928
 21
36.035233207056081
 31
0.0
  0
LINE
  5
7039
  8
0
 10
18.647063048253511
 20
35.035233207056081
 30
0.0
 11
20.143182696511861
 21
35.035233207056081
 31
0.0
  0
LINE
  5
703A
  8
0
 10
18.647063048253511
 20
44.035233207056081
 30
0.0
 11
19.143182696511928
 21
44.035233207056081
 31
0.0
  0
LINE
  5
703B
  8
0
 10
18.647063048253511
 20
38.035233207056081
 30
0.0
 11
19.143182696511928
 21
38.035233207056081
 31
0.0
  0
LINE
  5
703C
  8
0
 10
18.647063048253511
 20
40.035233207056081
 30
0.0
 11
18.6471229806981
 21
40.035233207056081
 31
0.0
  0
LINE
  5
703D
  8
0
 10
18.647063048253511
 20
42.035233207056081
 30
0.0
 11
19.143182696511928
 21
42.035233207056081
 31
0.0
  0
LINE
  5
703E
  8
0
 10
18.647063048253511
 20
37.035233207056081
 30
0.0
 11
20.143182696511861
 21
37.035233207056081
 31
0.0
  0
LINE
  5
703F
  8
0
 10
18.647063048253511
 20
39.035233207056081
 30
0.0
 11
19.041168492473489
 21
39.035233207056081
 31
0.0
  0
LINE
  5
7040
  8
0
 10
18.647063048253511
 20
41.035233207056073
 30
0.0
 11
19.01717914093728
 21
41.035233207056073
 31
0.0
  0
LINE
  5
7041
  8
0
 10
18.647063048253511
 20
43.035233207056073
 30
0.0
 11
20.143182696511861
 21
43.035233207056073
 31
0.0
  0
LINE
  5
7042
  8
0
 10
18.647063048253511
 20
45.035233207056081
 30
0.0
 11
20.143182696511861
 21
45.035233207056081
 31
0.0
  0
LINE
  5
7043
  8
0
 10
22.647063048253511
 20
45.035233207056081
 30
0.0
 11
22.647063048253511
 21
35.035233207056081
 31
0.0
  0
LINE
  5
7044
  8
0
 10
21.647063048253528
 20
45.035233207056081
 30
0.0
 11
21.647063048253749
 21
35.035233207056081
 31
0.0
  0
LINE
  5
7045
  8
0
 10
22.647063048253511
 20
30.035233207056081
 30
0.0
 11
22.647063048253511
 21
20.035233207056059
 31
0.0
  0
LINE
  5
7046
  8
0
 10
21.252957604033551
 20
39.035233207056081
 30
0.0
 11
21.647063048253528
 21
39.035233207056081
 31
0.0
  0
LINE
  5
7047
  8
0
 10
21.276946955569759
 20
41.035233207056073
 30
0.0
 11
21.647063048253528
 21
41.035233207056073
 31
0.0
  0
TEXT
  5
7048
  8
0
 10
25.647063048253528
 20
96.028319410543546
 30
0.0
 40
2.5
  1
片状コア
 11
25.647063048253528
 21
97.278319410543546
 31
0.0
 73
     2
  0
LINE
  5
7049
  8
0
 10
18.613926338660558
 20
88.958797046427264
 30
0.0
 11
18.613926338660558
 21
87.203028276931093
 31
0.0
  0
LINE
  5
704A
  8
0
 10
21.647063048253749
 20
88.203028276931093
 30
0.0
 11
21.647063048253749
 21
89.975365401223868
 31
0.0
  0
POLYLINE
  5
704B
  8
0
 66
     1
 10
0.0
 20
0.0
 30
0.0
 70
     1
  0
VERTEX
  5
79C9
  8
0
 10
20.516663255603589
 20
89.089196839077474
 30
0.0
  0
VERTEX
  5
79CA
  8
0
 10
19.630494693457191
 20
89.975365401223868
 30
0.0
  0
VERTEX
  5
79CB
  8
0
 10
18.7443261313108
 20
89.089196839077474
 30
0.0
  0
VERTEX
  5
79CC
  8
0
 10
19.630494693457191
 20
88.203028276931093
 30
0.0
  0
SEQEND
  5
79CD
  8
0
  0
POLYLINE
  5
7051
  8
0
 66
     1
 10
0.0
 20
0.0
 30
0.0
  0
VERTEX
  5
79CE
  8
0
 10
21.647063048253749
 20
89.975365401223868
 30
0.0
  0
VERTEX
  5
79CF
  8
0
 10
20.760894486107411
 20
89.089196839077474
 30
0.0
  0
VERTEX
  5
79D0
  8
0
 10
21.647063048253749
 20
88.203028276931093
 30
0.0
  0
SEQEND
  5
79D1
  8
0
  0
POLYLINE
  5
7056
  8
0
 66
     1
 10
0.0
 20
0.0
 30
0.0
 70
     1
  0
VERTEX
  5
79D2
  8
0
 10
21.52494743300182
 20
88.080912661679164
 30
0.0
  0
VERTEX
  5
79D3
  8
0
 10
20.638778870855429
 20
87.194744099532812
 30
0.0
  0
VERTEX
  5
79D4
  8
0
 10
19.752610308709102
 20
88.080912661679164
 30
0.0
  0
VERTEX
  5
79D5
  8
0
 10
20.638778870855429
 20
88.967081223825545
 30
0.0
  0
SEQEND
  5
79D6
  8
0
  0
POLYLINE
  5
705C
  8
0
 66
     1
 10
0.0
 20
0.0
 30
0.0
  0
VERTEX
  5
79D7
  8
0
 10
18.613926338660558
 20
88.958797046427264
 30
0.0
  0
VERTEX
  5
79D8
  8
0
 10
18.622210516058871
 20
88.967081223825545
 30
0.0
  0
VERTEX
  5
79D9
  8
0
 10
19.50837907820528
 20
88.080912661679164
 30
0.0
  0
VERTEX
  5
79DA
  8
0
 10
18.622210516058871
 20
87.194744099532812
 30
0.0
  0
VERTEX
  5
79DB
  8
0
 10
18.613926338660558
 20
87.203028276931093
 30
0.0
  0
SEQEND
  5
79DC
  8
0
  0
LINE
  5
7063
  8
0
 10
22.647063048253511
 20
90.035233207056095
 30
0.0
 11
22.647063048253511
 21
80.035233207056095
 31
0.0
  0
LINE
  5
7064
  8
0
 10
17.647063048253511
 20
90.035233207056095
 30
0.0
 11
17.647063048253511
 21
80.035233207056095
 31
0.0
  0
INSERT
  5
7065
  8
0
  2
*X1
 10
0.0
 20
0.0
 30
0.0
1001
ACAD
1000
HATCH
1002
{
1070
    19
1000
NET3
1040
0.25
1040
0.0
1000
R14_HATCH_DATA
1000
59A3
1011
1.0
1021
0.0
1031
0.0
1021
0.0
1031
0.0
1011
0.0
1021
0.0
1031
0.0
1021
0.9999999999999992
1031
0.0
1011
0.0
1021
0.0
1031
0.0
1021
0.0
1031
1.0
1040
0.0
1010
0.0
1020
0.0
1030
1.0
1000
NET3
1070
     0
1070
     0
1071
        2
1071
        7
1070
     1
1070
     1
1071
        4
1040
21.6470630482535
1040
75.035233207056081
1040
0.0
1040
18.647063048253511
1040
75.035233207056081
1040
0.0
1040
18.647063048253511
1040
70.048641925933154
1040
-1.0
1040
21.6470630482535
1040
70.048641925933154
1040
0.0
1071
        0
1071
        7
1070
     1
1070
     1
1071
        4
1040
21.6470630482535
1040
70.048641925933154
1040
-1.0
1040
18.647063048253511
1040
70.048641925933154
1040
0.0
1040
18.647063048253511
1040
65.035233207056081
1040
0.0
1040
21.6470630482535
1040
65.035233207056081
1040
0.0
1071
        0
1070
     0
1070
     1
1040
0.0
1040
0.25
1070
     0
1070
     3
1040
0.0
1040
6.5824899347211954
1040
-21.43770575382041
1040
0.0
1040
0.79375
1070
     0
1040
1.0471975511965961
1040
6.5824899347211954
1040
-21.43770575382041
1040
-0.6874076642538981
1040
0.396875
1070
     0
1040
2.094395102393193
1040
6.5824899347211954
1040
-21.43770575382041
1040
-0.6874076642538985
1040
-0.3968749999999998
1070
     0
1040
0.0287308190699878
1071
        2
1040
20.02239473157573
1040
73.277651586557013
1040
0.0
1040
19.964907422031882
1040
67.445294938455035
1040
0.0
1002
}
  0
CIRCLE
  5
7066
  8
0
 10
20.147063048253511
 20
70.048641925933183
 30
0.0
 40
1.5
  0
CIRCLE
  5
7067
  8
0
 10
20.147063048253511
 20
85.048641925933183
 30
0.0
 40
1.5
  0
POLYLINE
  5
7068
  8
0
 66
     1
 10
0.0
 20
0.0
 30
0.0
 70
     1
  0
VERTEX
  5
79DD
  8
0
 10
18.647063048253511
 20
65.035233207056081
 30
0.0
  0
VERTEX
  5
79DE
  8
0
 10
21.647063048253528
 20
65.035233207056081
 30
0.0
  0
VERTEX
  5
79DF
  8
0
 10
21.647063048253528
 20
75.035233207056095
 30
0.0
  0
VERTEX
  5
79E0
  8
0
 10
18.647063048253511
 20
75.035233207056095
 30
0.0
  0
SEQEND
  5
79E1
  8
0
  0
POLYLINE
  5
706E
  8
0
 66
     1
 10
0.0
 20
0.0
 30
0.0
  0
VERTEX
  5
79E2
  8
0
 10
21.647063048253749
 20
81.909091982037395
 30
0.0
  0
VERTEX
  5
79E3
  8
0
 10
20.760894486107411
 20
81.022923419891086
 30
0.0
  0
VERTEX
  5
79E4
  8
0
 10
21.647063048253749
 20
80.136754857744648
 30
0.0
  0
SEQEND
  5
79E5
  8
0
  0
POLYLINE
  5
7073
  8
0
 66
     1
 10
0.0
 20
0.0
 30
0.0
  0
VERTEX
  5
79E6
  8
0
 10
19.77320427327242
 20
80.035233207056095
 30
0.0
  0
VERTEX
  5
79E7
  8
0
 10
20.638778870855429
 20
80.900807804639143
 30
0.0
  0
VERTEX
  5
79E8
  8
0
 10
21.50435346843852
 20
80.035233207056095
 30
0.0
  0
SEQEND
  5
79E9
  8
0
  0
POLYLINE
  5
7078
  8
0
 66
     1
 10
0.0
 20
0.0
 30
0.0
  0
VERTEX
  5
79EA
  8
0
 10
21.647063048253749
 20
83.925660336834042
 30
0.0
  0
VERTEX
  5
79EB
  8
0
 10
20.760894486107411
 20
83.039491774687676
 30
0.0
  0
VERTEX
  5
79EC
  8
0
 10
21.647063048253749
 20
82.153323212541224
 30
0.0
  0
SEQEND
  5
79ED
  8
0
  0
POLYLINE
  5
707D
  8
0
 66
     1
 10
0.0
 20
0.0
 30
0.0
  0
VERTEX
  5
79EE
  8
0
 10
21.379346309455791
 20
84.193377075631986
 30
0.0
  0
VERTEX
  5
79EF
  8
0
 10
21.52494743300182
 20
84.047775952085914
 30
0.0
  0
VERTEX
  5
79F0
  8
0
 10
20.638778870855429
 20
83.161607389939604
 30
0.0
  0
VERTEX
  5
79F1
  8
0
 10
20.24832259984235
 20
83.552063660952655
 30
0.0
  0
SEQEND
  5
79F2
  8
0
  0
POLYLINE
  5
7083
  8
0
 66
     1
 10
0.0
 20
0.0
 30
0.0
 70
     1
  0
VERTEX
  5
79F3
  8
0
 10
21.52494743300182
 20
82.031207597289367
 30
0.0
  0
VERTEX
  5
79F4
  8
0
 10
20.638778870855429
 20
82.917376159435776
 30
0.0
  0
VERTEX
  5
79F5
  8
0
 10
19.752610308709102
 20
82.031207597289367
 30
0.0
  0
VERTEX
  5
79F6
  8
0
 10
20.638778870855429
 20
81.145039035142986
 30
0.0
  0
SEQEND
  5
79F7
  8
0
  0
POLYLINE
  5
7089
  8
0
 66
     1
 10
0.0
 20
0.0
 30
0.0
  0
VERTEX
  5
79F8
  8
0
 10
21.647063048253749
 20
87.958797046427264
 30
0.0
  0
VERTEX
  5
79F9
  8
0
 10
20.760894486107411
 20
87.072628484280884
 30
0.0
  0
VERTEX
  5
79FA
  8
0
 10
21.647063048253749
 20
86.186459922134475
 30
0.0
  0
SEQEND
  5
79FB
  8
0
  0
POLYLINE
  5
708E
  8
0
 66
     1
 10
0.0
 20
0.0
 30
0.0
  0
VERTEX
  5
79FC
  8
0
 10
21.373240672893409
 20
85.91263754677415
 30
0.0
  0
VERTEX
  5
79FD
  8
0
 10
21.52494743300182
 20
86.064344306882575
 30
0.0
  0
VERTEX
  5
79FE
  8
0
 10
20.638778870855429
 20
86.950512869028984
 30
0.0
  0
VERTEX
  5
79FF
  8
0
 10
20.23436521644253
 20
86.546099214616035
 30
0.0
  0
SEQEND
  5
7A00
  8
0
  0
LINE
  5
7094
  8
0
 10
18.647063048253511
 20
75.035233207056095
 30
0.0
 11
18.647063048253511
 21
65.035233207056081
 31
0.0
  0
LINE
  5
7095
  8
0
 10
17.647063048253511
 20
75.035233207056095
 30
0.0
 11
17.647063048253511
 21
65.035233207056081
 31
0.0
  0
POLYLINE
  5
7096
  8
0
 66
     1
 10
0.0
 20
0.0
 30
0.0
  0
VERTEX
  5
7A01
  8
0
 10
19.283067427412501
 20
83.822464301293266
 30
0.0
  0
VERTEX
  5
7A02
  8
0
 10
18.622210516058871
 20
83.161607389939604
 30
0.0
  0
VERTEX
  5
7A03
  8
0
 10
18.613926338660558
 20
83.169891567337885
 30
0.0
  0
SEQEND
  5
7A04
  8
0
  0
POLYLINE
  5
709B
  8
0
 66
     1
 10
0.0
 20
0.0
 30
0.0
  0
VERTEX
  5
7A05
  8
0
 10
19.291798197952399
 20
86.280925187135495
 30
0.0
  0
VERTEX
  5
7A06
  8
0
 10
18.622210516058871
 20
86.950512869028984
 30
0.0
  0
VERTEX
  5
7A07
  8
0
 10
18.613926338660558
 20
86.942228691630703
 30
0.0
  0
SEQEND
  5
7A08
  8
0
  0
LINE
  5
70A0
  8
0
 10
18.613926338660558
 20
80.892523627240877
 30
0.0
 11
18.613926338660558
 21
80.035233207056095
 31
0.0
  0
LINE
  5
70A1
  8
0
 10
18.613926338660558
 20
82.909091982037467
 30
0.0
 11
18.613926338660558
 21
81.153323212541238
 31
0.0
  0
LINE
  5
70A2
  8
0
 10
18.613926338660558
 20
84.925660336834085
 30
0.0
 11
18.613926338660558
 21
83.169891567337885
 31
0.0
  0
LINE
  5
70A3
  8
0
 10
18.613926338660558
 20
86.942228691630703
 30
0.0
 11
18.613926338660558
 21
85.186459922134475
 31
0.0
  0
POLYLINE
  5
70A4
  8
0
 66
     1
 10
0.0
 20
0.0
 30
0.0
 70
     1
  0
VERTEX
  5
7A09
  8
0
 10
20.516663255603589
 20
81.022923419891086
 30
0.0
  0
VERTEX
  5
7A0A
  8
0
 10
19.630494693457191
 20
81.909091982037395
 30
0.0
  0
VERTEX
  5
7A0B
  8
0
 10
18.7443261313108
 20
81.022923419891086
 30
0.0
  0
VERTEX
  5
7A0C
  8
0
 10
19.630494693457191
 20
80.136754857744648
 30
0.0
  0
SEQEND
  5
7A0D
  8
0
  0
POLYLINE
  5
70AA
  8
0
 66
     1
 10
0.0
 20
0.0
 30
0.0
  0
VERTEX
  5
7A0E
  8
0
 10
18.613926338660558
 20
80.892523627240877
 30
0.0
  0
VERTEX
  5
7A0F
  8
0
 10
18.622210516058871
 20
80.900807804639143
 30
0.0
  0
VERTEX
  5
7A10
  8
0
 10
19.487785113641891
 20
80.035233207056095
 30
0.0
  0
SEQEND
  5
7A11
  8
0
  0
POLYLINE
  5
70AF
  8
0
 66
     1
 10
0.0
 20
0.0
 30
0.0
  0
VERTEX
  5
7A12
  8
0
 10
18.613926338660558
 20
84.925660336834085
 30
0.0
  0
VERTEX
  5
7A13
  8
0
 10
18.622210516058871
 20
84.933944514232351
 30
0.0
  0
VERTEX
  5
7A14
  8
0
 10
18.654258362720949
 20
84.90189666757027
 30
0.0
  0
SEQEND
  5
7A15
  8
0
  0
POLYLINE
  5
70B4
  8
0
 66
     1
 10
0.0
 20
0.0
 30
0.0
  0
VERTEX
  5
7A16
  8
0
 10
19.433871245829369
 20
83.729036889206284
 30
0.0
  0
VERTEX
  5
7A17
  8
0
 10
18.7443261313108
 20
83.039491774687676
 30
0.0
  0
VERTEX
  5
7A18
  8
0
 10
19.630494693457191
 20
82.153323212541224
 30
0.0
  0
VERTEX
  5
7A19
  8
0
 10
20.516663255603589
 20
83.039491774687676
 30
0.0
  0
VERTEX
  5
7A1A
  8
0
 10
20.000317789890609
 20
83.555837240400592
 30
0.0
  0
SEQEND
  5
7A1B
  8
0
  0
POLYLINE
  5
70BB
  8
0
 66
     1
 10
0.0
 20
0.0
 30
0.0
  0
VERTEX
  5
7A1C
  8
0
 10
18.613926338660558
 20
81.153323212541238
 30
0.0
  0
VERTEX
  5
7A1D
  8
0
 10
18.622210516058871
 20
81.145039035142986
 30
0.0
  0
VERTEX
  5
7A1E
  8
0
 10
19.50837907820528
 20
82.031207597289367
 30
0.0
  0
VERTEX
  5
7A1F
  8
0
 10
18.622210516058871
 20
82.917376159435776
 30
0.0
  0
VERTEX
  5
7A20
  8
0
 10
18.613926338660558
 20
82.909091982037467
 30
0.0
  0
SEQEND
  5
7A21
  8
0
  0
POLYLINE
  5
70C2
  8
0
 66
     1
 10
0.0
 20
0.0
 30
0.0
  0
VERTEX
  5
7A22
  8
0
 10
19.983761016247431
 20
86.539726244924736
 30
0.0
  0
VERTEX
  5
7A23
  8
0
 10
20.516663255603589
 20
87.072628484280884
 30
0.0
  0
VERTEX
  5
7A24
  8
0
 10
19.630494693457191
 20
87.958797046427264
 30
0.0
  0
VERTEX
  5
7A25
  8
0
 10
18.7443261313108
 20
87.072628484280884
 30
0.0
  0
VERTEX
  5
7A26
  8
0
 10
19.44353195354477
 20
86.373422662046863
 30
0.0
  0
SEQEND
  5
7A27
  8
0
  0
POLYLINE
  5
70C9
  8
0
 66
     1
 10
0.0
 20
0.0
 30
0.0
  0
VERTEX
  5
7A28
  8
0
 10
18.613926338660558
 20
85.186459922134475
 30
0.0
  0
VERTEX
  5
7A29
  8
0
 10
18.622210516058871
 20
85.178175744736194
 30
0.0
  0
VERTEX
  5
7A2A
  8
0
 10
18.6559787292619
 20
85.211943957939255
 30
0.0
  0
SEQEND
  5
7A2B
  8
0
  0
LINE
  5
70CE
  8
0
 10
21.647063048253528
 20
75.035233207056095
 30
0.0
 11
21.647063048253749
 21
65.035233207056081
 31
0.0
  0
LINE
  5
70CF
  8
0
 10
22.647063048253511
 20
75.035233207056095
 30
0.0
 11
22.647063048253511
 21
65.035233207056081
 31
0.0
  0
POLYLINE
  5
70D0
  8
0
 66
     1
 10
0.0
 20
0.0
 30
0.0
  0
VERTEX
  5
7A2C
  8
0
 10
21.471843784367248
 20
84.345110831224446
 30
0.0
  0
VERTEX
  5
7A2D
  8
0
 10
21.647063048253749
 20
84.169891567337913
 30
0.0
  0
SEQEND
  5
7A2E
  8
0
  0
LINE
  5
70D4
  8
0
 10
21.647063048253749
 20
86.186459922134475
 30
0.0
 11
21.647063048253749
 21
87.958797046427264
 31
0.0
  0
LINE
  5
70D5
  8
0
 10
21.647063048253749
 20
83.925660336834042
 30
0.0
 11
21.647063048253749
 21
82.153323212541224
 31
0.0
  0
LINE
  5
70D6
  8
0
 10
21.647063048253749
 20
81.909091982037395
 30
0.0
 11
21.647063048253749
 21
80.136754857744648
 31
0.0
  0
POLYLINE
  5
70D7
  8
0
 66
     1
 10
0.0
 20
0.0
 30
0.0
  0
VERTEX
  5
7A2F
  8
0
 10
21.647063048253749
 20
85.942228691630632
 30
0.0
  0
VERTEX
  5
7A30
  8
0
 10
21.466668084980409
 20
85.761833728357274
 30
0.0
  0
SEQEND
  5
7A31
  8
0
  0
LINE
  5
70DB
  8
0
 10
21.647063048253749
 20
85.942228691630632
 30
0.0
 11
21.647063048253749
 21
84.169891567337885
 31
0.0
  0
CIRCLE
  5
70DC
  8
0
 10
20.147063048253511
 20
100.0486419259331
 30
0.0
 40
1.5
  0
CIRCLE
  5
70DD
  8
0
 10
20.147063048253511
 20
115.048641925933
 30
0.0
 40
1.5
  0
POLYLINE
  5
70DE
  8
0
 66
     1
 10
0.0
 20
0.0
 30
0.0
  0
VERTEX
  5
7A32
  8
0
 10
21.483316832891489
 20
90.055850416365416
 30
0.0
  0
VERTEX
  5
7A33
  8
0
 10
20.638778870855429
 20
89.211312454329374
 30
0.0
  0
VERTEX
  5
7A34
  8
0
 10
19.794240908819461
 20
90.055850416365416
 30
0.0
  0
SEQEND
  5
7A35
  8
0
  0
LINE
  5
70E3
  8
0
 10
21.647063048253528
 20
104.7260610596733
 30
0.0
 11
19.503931059405708
 21
103.8587762780333
 31
0.0
  0
LINE
  5
70E4
  8
0
 10
21.647063048253528
 20
102.99149149639329
 30
0.0
 11
20.03846274941532
 21
103.6424614628647
 31
0.0
  0
LINE
  5
70E5
  8
0
 10
21.647063048253528
 20
104.2934314293359
 30
0.0
 11
20.03846274941532
 21
103.6424614628647
 31
0.0
  0
LINE
  5
70E6
  8
0
 10
20.728175735881329
 20
96.233013329041185
 30
0.0
 11
21.647063048253528
 21
95.861157098902567
 31
0.0
  0
LINE
  5
70E7
  8
0
 10
21.647063048253528
 20
96.293786729239841
 30
0.0
 11
20.03846274941532
 21
96.944756695711163
 31
0.0
  0
LINE
  5
70E8
  8
0
 10
21.647063048253528
 20
98.028356292519817
 30
0.0
 11
19.503931059405708
 21
97.161071510879779
 31
0.0
  0
LINE
  5
70E9
  8
0
 10
21.647063048253528
 20
97.5957266621825
 30
0.0
 11
20.03846274941532
 21
96.944756695711163
 31
0.0
  0
LINE
  5
70EA
  8
0
 10
20.728175735881329
 20
102.9307180961947
 30
0.0
 11
21.647063048253528
 21
102.55886186605611
 31
0.0
  0
LINE
  5
70EB
  8
0
 10
18.647063048253511
 20
112.0852262467851
 30
0.0
 11
21.647063048253528
 21
110.87118326741709
 31
0.0
  0
LINE
  5
70EC
  8
0
 10
18.647063048253511
 20
112.5178558771225
 30
0.0
 11
21.647063048253528
 21
111.3038128977543
 31
0.0
  0
LINE
  5
70ED
  8
0
 10
18.647063048253511
 20
119.02877311137949
 30
0.0
 11
21.647063048253528
 21
117.81473013201141
 31
0.0
  0
LINE
  5
70EE
  8
0
 10
18.647063048253511
 20
119.4614027417168
 30
0.0
 11
21.647063048253528
 21
118.24735976234859
 31
0.0
  0
LINE
  5
70EF
  8
0
 10
18.647063048253511
 20
120.035233207056
 30
0.0
 11
21.647063048253528
 21
120.035233207056
 31
0.0
  0
LINE
  5
70F0
  8
0
 10
18.647063048253511
 20
110.035233207056
 30
0.0
 11
21.647063048253528
 21
110.035233207056
 31
0.0
  0
LINE
  5
70F1
  8
0
 10
19.503931059405708
 20
97.161071510879779
 30
0.0
 11
18.647063048253511
 21
97.507829708607943
 31
0.0
  0
LINE
  5
70F2
  8
0
 10
17.647063048253511
 20
105.035233207056
 30
0.0
 11
17.647063048253511
 21
95.035233207056095
 31
0.0
  0
LINE
  5
70F3
  8
0
 10
18.613926338660558
 20
89.975365401223868
 30
0.0
 11
18.613926338660558
 21
89.219596631727697
 31
0.0
  0
POLYLINE
  5
70F4
  8
0
 66
     1
 10
0.0
 20
0.0
 30
0.0
  0
VERTEX
  5
7A36
  8
0
 10
19.466748478094871
 20
90.055850416365416
 30
0.0
  0
VERTEX
  5
7A37
  8
0
 10
18.622210516058871
 20
89.211312454329374
 30
0.0
  0
VERTEX
  5
7A38
  8
0
 10
18.613926338660558
 20
89.219596631727697
 30
0.0
  0
SEQEND
  5
7A39
  8
0
  0
LINE
  5
70F9
  8
0
 10
18.647063048253511
 20
97.075200078270683
 30
0.0
 11
18.647063048253511
 21
95.823456210148976
 31
0.0
  0
LINE
  5
70FA
  8
0
 10
18.647063048253511
 20
95.390826579811701
 30
0.0
 11
18.647063048253511
 21
95.035233207056095
 31
0.0
  0
LINE
  5
70FB
  8
0
 10
18.647063048253511
 20
97.075200078270683
 30
0.0
 11
20.193644045871771
 21
96.449328144209815
 31
0.0
  0
LINE
  5
70FC
  8
0
 10
18.647063048253511
 20
95.390826579811701
 30
0.0
 11
20.728175735881329
 21
96.233013329041185
 31
0.0
  0
LINE
  5
70FD
  8
0
 10
18.647063048253511
 20
95.823456210148976
 30
0.0
 11
20.193644045871771
 21
96.449328144209815
 31
0.0
  0
LINE
  5
70FE
  8
0
 10
18.647063048253511
 20
105.035233207056
 30
0.0
 11
18.647063048253511
 21
104.2055344757613
 31
0.0
  0
LINE
  5
70FF
  8
0
 10
19.503931059405708
 20
103.8587762780333
 30
0.0
 11
18.647063048253511
 21
104.2055344757613
 31
0.0
  0
LINE
  5
7100
  8
0
 10
18.647063048253511
 20
99.210009482479336
 30
0.0
 11
18.647063048253511
 21
97.507829708607943
 31
0.0
  0
LINE
  5
7101
  8
0
 10
18.85145924795335
 20
99.292724739564392
 30
0.0
 11
18.647063048253511
 21
99.210009482479364
 31
0.0
  0
LINE
  5
7102
  8
0
 10
18.647063048253511
 20
100.9445790457591
 30
0.0
 11
18.647063048253511
 21
99.642639112816653
 31
0.0
  0
LINE
  5
7103
  8
0
 10
18.647063048253511
 20
100.9445790457591
 30
0.0
 11
18.879411589354671
 21
100.85055200739581
 31
0.0
  0
LINE
  5
7104
  8
0
 10
18.647063048253511
 20
101.3772086760965
 30
0.0
 11
19.153393826249768
 21
101.1723062340083
 31
0.0
  0
LINE
  5
7105
  8
0
 10
18.647063048253511
 20
102.0885313469651
 30
0.0
 11
18.647063048253511
 21
101.3772086760965
 31
0.0
  0
LINE
  5
7106
  8
0
 10
18.647063048253511
 20
102.0885313469651
 30
0.0
 11
20.728175735881329
 21
102.9307180961947
 31
0.0
  0
LINE
  5
7107
  8
0
 10
18.647063048253511
 20
102.5211609773025
 30
0.0
 11
20.193644045871771
 21
103.1470329113633
 31
0.0
  0
LINE
  5
7108
  8
0
 10
18.647063048253511
 20
103.77290484542409
 30
0.0
 11
20.193644045871771
 21
103.1470329113633
 31
0.0
  0
LINE
  5
7109
  8
0
 10
18.647063048253511
 20
99.642639112816653
 30
0.0
 11
18.697473272960782
 21
99.663039172614745
 31
0.0
  0
LINE
  5
710A
  8
0
 10
18.647063048253511
 20
103.77290484542409
 30
0.0
 11
18.647063048253511
 21
102.5211609773025
 31
0.0
  0
LINE
  5
710B
  8
0
 10
17.647063048253511
 20
120.035233207056
 30
0.0
 11
17.647063048253511
 21
110.035233207056
 31
0.0
  0
LINE
  5
710C
  8
0
 10
18.647063048253511
 20
112.0852262467851
 30
0.0
 11
18.647063048253511
 21
110.035233207056
 31
0.0
  0
LINE
  5
710D
  8
0
 10
18.647063048253511
 20
114.46587774843459
 30
0.0
 11
18.647063048253511
 21
112.5178558771225
 31
0.0
  0
LINE
  5
710E
  8
0
 10
18.647063048253511
 20
114.46587774843459
 30
0.0
 11
18.748324856851461
 21
114.50685647770339
 31
0.0
  0
LINE
  5
710F
  8
0
 10
18.647063048253511
 20
119.02877311137949
 30
0.0
 11
18.647063048253511
 21
114.8985073787717
 31
0.0
  0
LINE
  5
7110
  8
0
 10
18.647063048253511
 20
114.8985073787717
 30
0.0
 11
18.6543035728116
 21
114.9014374814406
 31
0.0
  0
LINE
  5
7111
  8
0
 10
18.647063048253511
 20
120.035233207056
 30
0.0
 11
18.647063048253511
 21
119.4614027417168
 31
0.0
  0
LINE
  5
7112
  8
0
 10
21.647063048253528
 20
97.5957266621825
 30
0.0
 11
21.647063048253528
 21
96.293786729239841
 31
0.0
  0
LINE
  5
7113
  8
0
 10
22.647063048253511
 20
105.035233207056
 30
0.0
 11
22.647063048253511
 21
95.035233207056095
 31
0.0
  0
LINE
  5
7114
  8
0
 10
21.647063048253528
 20
95.861157098902567
 30
0.0
 11
21.647063048253528
 21
95.035233207056095
 31
0.0
  0
LINE
  5
7115
  8
0
 10
21.647063048253528
 20
105.035233207056
 30
0.0
 11
21.647063048253528
 21
104.7260610596733
 31
0.0
  0
LINE
  5
7116
  8
0
 10
21.647063048253528
 20
104.2934314293359
 30
0.0
 11
21.647063048253528
 21
102.99149149639329
 31
0.0
  0
LINE
  5
7117
  8
0
 10
21.647063048253528
 20
100.4240524618473
 30
0.0
 11
21.647063048253528
 21
99.172308593725774
 31
0.0
  0
LINE
  5
7118
  8
0
 10
21.647063048253528
 20
100.4240524618473
 30
0.0
 11
21.60374475238223
 21
100.40652237085381
 31
0.0
  0
LINE
  5
7119
  8
0
 10
21.647063048253528
 20
98.739678963388471
 30
0.0
 11
21.15579953938207
 21
98.938483968043528
 31
0.0
  0
LINE
  5
711A
  8
0
 10
21.647063048253528
 20
99.172308593725774
 30
0.0
 11
21.42448124382895
 21
99.262383219391324
 31
0.0
  0
LINE
  5
711B
  8
0
 10
21.647063048253528
 20
98.739678963388471
 30
0.0
 11
21.647063048253528
 21
98.028356292519817
 31
0.0
  0
LINE
  5
711C
  8
0
 10
21.456850855958521
 20
100.7797068333026
 30
0.0
 11
21.647063048253528
 21
100.8566820921846
 31
0.0
  0
LINE
  5
711D
  8
0
 10
21.647063048253528
 20
102.55886186605611
 30
0.0
 11
21.647063048253528
 21
100.8566820921846
 31
0.0
  0
LINE
  5
711E
  8
0
 10
21.647063048253528
 20
115.6799207278026
 30
0.0
 11
21.647063048253528
 21
111.3038128977543
 31
0.0
  0
LINE
  5
711F
  8
0
 10
22.647063048253511
 20
120.035233207056
 30
0.0
 11
22.647063048253511
 21
110.035233207056
 31
0.0
  0
LINE
  5
7120
  8
0
 10
21.647063048253528
 20
110.87118326741709
 30
0.0
 11
21.647063048253528
 21
110.035233207056
 31
0.0
  0
LINE
  5
7121
  8
0
 10
21.528931066048582
 20
115.63211495992439
 30
0.0
 11
21.647063048253528
 21
115.6799207278026
 31
0.0
  0
LINE
  5
7122
  8
0
 10
21.322072478672268
 20
115.98103285168619
 30
0.0
 11
21.647063048253528
 21
116.1125503581398
 31
0.0
  0
LINE
  5
7123
  8
0
 10
21.647063048253528
 20
117.81473013201141
 30
0.0
 11
21.647063048253528
 21
116.1125503581398
 31
0.0
  0
LINE
  5
7124
  8
0
 10
21.647063048253528
 20
120.035233207056
 30
0.0
 11
21.647063048253528
 21
118.24735976234859
 31
0.0
  0
TEXT
  5
7125
  8
0
 10
16.926479977922369
 20
147.18432420647551
 30
0.0
 40
4.0
  1
＜凡　例＞
 11
16.926479977922369
 21
149.18432420647551
 31
0.0
 73
     2
  0
TEXT
  5
7126
  8
0
 10
16.926479977922369
 20
140.5133437379867
 30
0.0
 40
3.0
  1
コア形状
 11
16.926479977922369
 21
142.0133437379867
 31
0.0
 73
     2
  0
CIRCLE
  5
7127
  8
0
 10
20.147063048253511
 20
130.048641925933
 30
0.0
 40
1.5
  0
LINE
  5
7128
  8
0
 10
18.647063048253511
 20
127.14970008318591
 30
0.0
 11
21.647063048253528
 21
128.36374306255391
 31
0.0
  0
LINE
  5
7129
  8
0
 10
18.647063048253511
 20
127.58232971352309
 30
0.0
 11
21.647063048253528
 21
128.79637269289131
 31
0.0
  0
LINE
  5
712A
  8
0
 10
18.647063048253511
 20
125.0352332070559
 30
0.0
 11
21.647063048253528
 21
125.0352332070559
 31
0.0
  0
LINE
  5
712B
  8
0
 10
18.647063048253511
 20
135.035233207056
 30
0.0
 11
21.647063048253528
 21
135.035233207056
 31
0.0
  0
LINE
  5
712C
  8
0
 10
17.647063048253511
 20
135.035233207056
 30
0.0
 11
17.647063048253511
 21
125.0352332070559
 31
0.0
  0
LINE
  5
712D
  8
0
 10
18.647063048253511
 20
135.035233207056
 30
0.0
 11
18.647063048253511
 21
127.58232971352309
 31
0.0
  0
LINE
  5
712E
  8
0
 10
18.647063048253511
 20
127.14970008318591
 30
0.0
 11
18.647063048253511
 21
125.0352332070559
 31
0.0
  0
LINE
  5
712F
  8
0
 10
22.647063048253511
 20
135.035233207056
 30
0.0
 11
22.647063048253511
 21
125.0352332070559
 31
0.0
  0
LINE
  5
7130
  8
0
 10
21.647063048253528
 20
135.035233207056
 30
0.0
 11
21.647063048253528
 21
128.79637269289131
 31
0.0
  0
LINE
  5
7131
  8
0
 10
21.647063048253528
 20
128.36374306255391
 30
0.0
 11
21.647063048253528
 21
125.0352332070559
 31
0.0
  0
LINE
  5
7132
  8
0
 10
73.775838725322089
 20
86.53261290334892
 30
0.0
 11
78.775838725322089
 21
89.545708852673698
 31
0.0
  0
LINE
  5
7133
  8
0
 10
73.775838725322089
 20
87.700153004584635
 30
0.0
 11
77.623220882455428
 21
89.947298185883255
 31
0.0
  0
LINE
  5
7134
  8
0
 10
78.775838725322089
 20
87.700153004584635
 30
0.0
 11
74.928456568188764
 21
89.947298185883255
 31
0.0
  0
LINE
  5
7135
  8
0
 10
78.775838725322089
 20
86.53261290334892
 30
0.0
 11
73.775838725322089
 21
89.545708852673698
 31
0.0
  0
LINE
  5
7136
  8
0
 10
78.775838725322089
 20
90.035233207056095
 30
0.0
 11
78.775838725322089
 21
80.035233207056095
 31
0.0
  0
LINE
  5
7137
  8
0
 10
73.775838725322089
 20
90.035233207056095
 30
0.0
 11
73.775838725322089
 21
80.035233207056095
 31
0.0
  0
LINE
  5
7138
  8
0
 10
78.27583872532206
 20
75.035233207056095
 30
0.0
 11
78.27583872532206
 21
65.035233207056081
 31
0.0
  0
LINE
  5
7139
  8
0
 10
74.27583872532206
 20
75.035233207056095
 30
0.0
 11
74.27583872532206
 21
65.035233207056081
 31
0.0
  0
LINE
  5
713A
  8
0
 10
77.775838725322089
 20
75.035233207056095
 30
0.0
 11
77.775838725322089
 21
70.699883000174907
 31
0.0
  0
LINE
  5
713B
  8
0
 10
74.775838725322089
 20
75.035233207056095
 30
0.0
 11
74.775838725322089
 21
70.699883000174907
 31
0.0
  0
LINE
  5
713C
  8
0
 10
78.775838725322089
 20
75.035233207056095
 30
0.0
 11
78.775838725322089
 21
65.035233207056081
 31
0.0
  0
LINE
  5
713D
  8
0
 10
73.775838725322089
 20
75.035233207056095
 30
0.0
 11
73.775838725322089
 21
65.035233207056081
 31
0.0
  0
CIRCLE
  5
713E
  8
0
 10
76.275838725322089
 20
69.518133441545544
 30
0.0
 40
1.8926483991381231
  0
LINE
  5
713F
  8
0
 10
73.775838725322089
 20
66.535233207056081
 30
0.0
 11
78.775838725322089
 21
66.535233207056081
 31
0.0
  0
LINE
  5
7140
  8
0
 10
73.775838725322089
 20
66.035233207056081
 30
0.0
 11
78.775838725322089
 21
66.035233207056081
 31
0.0
  0
LINE
  5
7141
  8
0
 10
73.775838725322089
 20
65.535233207056081
 30
0.0
 11
78.775838725322089
 21
65.535233207056081
 31
0.0
  0
LINE
  5
7142
  8
0
 10
73.775838725322089
 20
65.035233207056081
 30
0.0
 11
78.775838725322089
 21
65.035233207056081
 31
0.0
  0
LINE
  5
7143
  8
0
 10
73.775838725322089
 20
67.535233207056081
 30
0.0
 11
78.775838725322089
 21
67.535233207056081
 31
0.0
  0
LINE
  5
7144
  8
0
 10
73.775838725322089
 20
67.035233207056081
 30
0.0
 11
78.775838725322089
 21
67.035233207056081
 31
0.0
  0
TEXT
  5
7145
  8
0
 10
75.342505391988752
 20
68.518133441545544
 30
0.0
 40
2.0
  1
ε
 72
     1
 11
76.275838725322089
 21
69.518133441545544
 31
0.0
 73
     2
  0
LINE
  5
7146
  8
0
 10
75.77583872532206
 20
67.720299867607622
 30
0.0
 11
75.77583872532206
 21
65.035233207056081
 31
0.0
  0
LINE
  5
7147
  8
0
 10
75.275838725322089
 20
67.938811854493679
 30
0.0
 11
75.275838725322089
 21
65.035233207056081
 31
0.0
  0
LINE
  5
7148
  8
0
 10
74.775838725322089
 20
68.391534705172546
 30
0.0
 11
74.775838725322089
 21
65.035233207056081
 31
0.0
  0
LINE
  5
7149
  8
0
 10
73.775838725322089
 20
71.035233207056095
 30
0.0
 11
75.108176462310269
 21
71.035233207056095
 31
0.0
  0
LINE
  5
714A
  8
0
 10
73.775838725322089
 20
68.535233207056081
 30
0.0
 11
74.675508468039652
 21
68.535233207056081
 31
0.0
  0
LINE
  5
714B
  8
0
 10
73.775838725322089
 20
69.035233207056081
 30
0.0
 11
74.45333150229348
 21
69.035233207056081
 31
0.0
  0
LINE
  5
714C
  8
0
 10
73.775838725322089
 20
69.535233207056081
 30
0.0
 11
74.383219317303414
 21
69.535233207056081
 31
0.0
  0
LINE
  5
714D
  8
0
 10
73.775838725322089
 20
70.035233207056081
 30
0.0
 11
74.447592606981729
 21
70.035233207056081
 31
0.0
  0
LINE
  5
714E
  8
0
 10
73.775838725322089
 20
70.535233207056095
 30
0.0
 11
74.662469730068906
 21
70.535233207056095
 31
0.0
  0
LINE
  5
714F
  8
0
 10
73.775838725322089
 20
68.035233207056081
 30
0.0
 11
75.135408417606612
 21
68.035233207056081
 31
0.0
  0
LINE
  5
7150
  8
0
 10
76.77583872532206
 20
67.720299867607594
 30
0.0
 11
76.77583872532206
 21
65.035233207056081
 31
0.0
  0
LINE
  5
7151
  8
0
 10
77.275838725322089
 20
67.93881185449365
 30
0.0
 11
77.275838725322089
 21
65.035233207056081
 31
0.0
  0
LINE
  5
7152
  8
0
 10
76.275838725322089
 20
67.653060453535602
 30
0.0
 11
76.275838725322089
 21
65.035233207056081
 31
0.0
  0
LINE
  5
7153
  8
0
 10
77.775838725322089
 20
68.391534705172546
 30
0.0
 11
77.775838725322089
 21
65.035233207056081
 31
0.0
  0
LINE
  5
7154
  8
0
 10
77.443500988333923
 20
71.035233207056095
 30
0.0
 11
78.775838725322089
 21
71.035233207056095
 31
0.0
  0
LINE
  5
7155
  8
0
 10
77.87616898260454
 20
68.535233207056081
 30
0.0
 11
78.775838725322089
 21
68.535233207056081
 31
0.0
  0
LINE
  5
7156
  8
0
 10
78.098345948350698
 20
69.035233207056081
 30
0.0
 11
78.775838725322089
 21
69.035233207056081
 31
0.0
  0
LINE
  5
7157
  8
0
 10
78.168458133340764
 20
69.535233207056081
 30
0.0
 11
78.775838725322089
 21
69.535233207056081
 31
0.0
  0
LINE
  5
7158
  8
0
 10
78.104084843662449
 20
70.035233207056081
 30
0.0
 11
78.775838725322089
 21
70.035233207056081
 31
0.0
  0
LINE
  5
7159
  8
0
 10
77.889207720575314
 20
70.535233207056095
 30
0.0
 11
78.775838725322089
 21
70.535233207056095
 31
0.0
  0
LINE
  5
715A
  8
0
 10
77.41626903303758
 20
68.035233207056081
 30
0.0
 11
78.775838725322089
 21
68.035233207056081
 31
0.0
  0
LINE
  5
715B
  8
0
 10
73.775838725322089
 20
75.035233207056095
 30
0.0
 11
78.775838725322089
 21
75.035233207056095
 31
0.0
  0
LINE
  5
715C
  8
0
 10
73.775838725322089
 20
74.535233207056095
 30
0.0
 11
78.775838725322089
 21
74.535233207056095
 31
0.0
  0
LINE
  5
715D
  8
0
 10
73.775838725322089
 20
74.035233207056095
 30
0.0
 11
78.775838725322089
 21
74.035233207056095
 31
0.0
  0
LINE
  5
715E
  8
0
 10
73.775838725322089
 20
73.535233207056095
 30
0.0
 11
78.775838725322089
 21
73.535233207056095
 31
0.0
  0
LINE
  5
715F
  8
0
 10
73.775838725322089
 20
73.035233207056095
 30
0.0
 11
78.775838725322089
 21
73.035233207056095
 31
0.0
  0
LINE
  5
7160
  8
0
 10
73.775838725322089
 20
72.535233207056095
 30
0.0
 11
78.775838725322089
 21
72.535233207056095
 31
0.0
  0
LINE
  5
7161
  8
0
 10
73.775838725322089
 20
72.035233207056095
 30
0.0
 11
78.775838725322089
 21
72.035233207056095
 31
0.0
  0
LINE
  5
7162
  8
0
 10
73.775838725322089
 20
71.535233207056095
 30
0.0
 11
78.775838725322089
 21
71.535233207056095
 31
0.0
  0
LINE
  5
7163
  8
0
 10
75.77583872532206
 20
75.035233207056095
 30
0.0
 11
75.77583872532206
 21
71.37111783773986
 31
0.0
  0
LINE
  5
7164
  8
0
 10
75.275838725322089
 20
75.035233207056095
 30
0.0
 11
75.275838725322089
 21
71.152605850853774
 31
0.0
  0
LINE
  5
7165
  8
0
 10
76.77583872532206
 20
75.035233207056095
 30
0.0
 11
76.77583872532206
 21
71.37111783773986
 31
0.0
  0
LINE
  5
7166
  8
0
 10
77.275838725322089
 20
75.035233207056095
 30
0.0
 11
77.275838725322089
 21
71.152605850853803
 31
0.0
  0
LINE
  5
7167
  8
0
 10
76.275838725322089
 20
75.035233207056095
 30
0.0
 11
76.275838725322089
 21
71.438357251811851
 31
0.0
  0
LINE
  5
7168
  8
0
 10
73.775838725322089
 20
80.694912397170384
 30
0.0
 11
78.775838725322089
 21
83.708008346495205
 31
0.0
  0
LINE
  5
7169
  8
0
 10
78.775838725322089
 20
80.694912397170384
 30
0.0
 11
73.775838725322089
 21
83.708008346495205
 31
0.0
  0
LINE
  5
716A
  8
0
 10
76.029785636077406
 20
80.043166101965525
 30
0.0
 11
73.775838725322089
 21
81.378240271605875
 31
0.0
  0
LINE
  5
716B
  8
0
 10
74.493330574460231
 20
79.959746652796994
 30
0.0
 11
78.775838725322089
 21
82.540468245259447
 31
0.0
  0
LINE
  5
716C
  8
0
 10
78.058346876183933
 20
79.959746652796994
 30
0.0
 11
73.775838725322089
 21
82.540468245259447
 31
0.0
  0
LINE
  5
716D
  8
0
 10
73.775838725322089
 20
85.36507280211319
 30
0.0
 11
78.775838725322089
 21
88.378168751438025
 31
0.0
  0
LINE
  5
716E
  8
0
 10
78.775838725322089
 20
85.36507280211319
 30
0.0
 11
73.775838725322089
 21
88.378168751438025
 31
0.0
  0
TEXT
  5
716F
  8
0
 10
75.342505391988752
 20
83.566127748659753
 30
0.0
 40
2.0
  1
δ
 72
     1
 11
76.275838725322089
 21
84.566127748659753
 31
0.0
 73
     2
  0
CIRCLE
  5
7170
  8
0
 10
76.275838725322089
 20
84.566127748659753
 30
0.0
 40
1.8926483991381231
  0
LINE
  5
7171
  8
0
 10
73.775838725322089
 20
81.862452498406086
 30
0.0
 11
75.423934696608484
 21
82.855626757442366
 31
0.0
  0
LINE
  5
7172
  8
0
 10
73.775838725322089
 20
83.029992599641773
 30
0.0
 11
74.65884933723305
 21
83.562111739233714
 31
0.0
  0
LINE
  5
7173
  8
0
 10
73.775838725322089
 20
84.197532700877474
 30
0.0
 11
74.383274751463816
 21
84.563585306845752
 31
0.0
  0
LINE
  5
7174
  8
0
 10
74.650743140647961
 20
85.515854358993636
 30
0.0
 11
73.775838725322089
 21
86.043088548966594
 31
0.0
  0
LINE
  5
7175
  8
0
 10
74.383539863038408
 20
84.509336080440235
 30
0.0
 11
73.775838725322089
 21
84.875548447730878
 31
0.0
  0
LINE
  5
7176
  8
0
 10
75.407457191863656
 20
86.227384051726276
 30
0.0
 11
73.775838725322089
 21
87.210628650202239
 31
0.0
  0
LINE
  5
7177
  8
0
 10
76.5218918145668
 20
80.043166101965525
 30
0.0
 11
78.775838725322089
 21
81.378240271605875
 31
0.0
  0
LINE
  5
7178
  8
0
 10
78.775838725322089
 20
81.862452498406086
 30
0.0
 11
77.127742754035737
 21
82.855626757442366
 31
0.0
  0
LINE
  5
7179
  8
0
 10
78.168137587605784
 20
84.509336080440235
 30
0.0
 11
78.775838725322089
 21
84.875548447730878
 31
0.0
  0
LINE
  5
717A
  8
0
 10
77.900934309996245
 20
85.515854358993636
 30
0.0
 11
78.775838725322089
 21
86.043088548966594
 31
0.0
  0
LINE
  5
717B
  8
0
 10
78.775838725322089
 20
84.197532700877474
 30
0.0
 11
78.168402699180433
 21
84.563585306845752
 31
0.0
  0
LINE
  5
717C
  8
0
 10
78.775838725322089
 20
83.029992599641773
 30
0.0
 11
77.892828113411156
 21
83.562111739233714
 31
0.0
  0
LINE
  5
717D
  8
0
 10
77.144220258780535
 20
86.227384051726276
 30
0.0
 11
78.775838725322089
 21
87.210628650202239
 31
0.0
  0
LINE
  5
717E
  8
0
 10
74.493330574460231
 20
94.959746652796937
 30
0.0
 11
78.775838725322089
 21
97.540468245259447
 31
0.0
  0
LINE
  5
717F
  8
0
 10
73.775838725322089
 20
95.694912397170384
 30
0.0
 11
78.775838725322089
 21
98.708008346495205
 31
0.0
  0
LINE
  5
7180
  8
0
 10
73.775838725322089
 20
96.862452498406086
 30
0.0
 11
75.423934696608484
 21
97.855626757442366
 31
0.0
  0
LINE
  5
7181
  8
0
 10
73.775838725322089
 20
105.035233207056
 30
0.0
 11
73.775838725322089
 21
95.035233207056095
 31
0.0
  0
LINE
  5
7182
  8
0
 10
78.775838725322089
 20
105.035233207056
 30
0.0
 11
78.775838725322089
 21
95.035233207056095
 31
0.0
  0
LINE
  5
7183
  8
0
 10
73.775838725322089
 20
88.867693105820365
 30
0.0
 11
75.764729293204084
 21
90.050466299467047
 31
0.0
  0
LINE
  5
7184
  8
0
 10
78.775838725322089
 20
88.867693105820365
 30
0.0
 11
76.786948157440122
 21
90.050466299467047
 31
0.0
  0
LINE
  5
7185
  8
0
 10
76.5218918145668
 20
95.043166101965525
 30
0.0
 11
78.775838725322089
 21
96.378240271605904
 31
0.0
  0
LINE
  5
7186
  8
0
 10
73.775838725322089
 20
101.53261290334871
 30
0.0
 11
78.775838725322089
 21
104.5457088526736
 31
0.0
  0
LINE
  5
7187
  8
0
 10
73.775838725322089
 20
102.70015300458449
 30
0.0
 11
77.623220882455428
 21
104.9472981858831
 31
0.0
  0
LINE
  5
7188
  8
0
 10
73.775838725322089
 20
100.3650728021131
 30
0.0
 11
78.775838725322089
 21
103.3781687514378
 31
0.0
  0
CIRCLE
  5
7189
  8
0
 10
76.275838725322089
 20
99.523997402125545
 30
0.0
 40
1.8926483991381231
  0
TEXT
  5
718A
  8
0
 10
75.409172058655429
 20
98.523997402125545
 30
0.0
 40
2.0
  1
γ
 72
     1
 11
76.275838725322089
 21
99.523997402125545
 31
0.0
 73
     2
  0
LINE
  5
718B
  8
0
 10
73.775838725322089
 20
98.029992599641758
 30
0.0
 11
74.65884933723305
 21
98.562111739233757
 31
0.0
  0
LINE
  5
718C
  8
0
 10
73.775838725322089
 20
99.197532700877446
 30
0.0
 11
74.383274751463816
 21
99.563585306845752
 31
0.0
  0
LINE
  5
718D
  8
0
 10
73.775838725322089
 20
103.86769310582009
 30
0.0
 11
75.764729293204084
 21
105.050466299467
 31
0.0
  0
LINE
  5
718E
  8
0
 10
77.900934309996245
 20
100.51585435899339
 30
0.0
 11
78.775838725322089
 21
101.0430885489664
 31
0.0
  0
LINE
  5
718F
  8
0
 10
78.168137587605784
 20
99.509336080440235
 30
0.0
 11
78.775838725322089
 21
99.875548447730665
 31
0.0
  0
LINE
  5
7190
  8
0
 10
77.144220258780535
 20
101.2273840517261
 30
0.0
 11
78.775838725322089
 21
102.2106286502021
 31
0.0
  0
CIRCLE
  5
7191
  8
0
 10
76.275838725322089
 20
115.048641925933
 30
0.0
 40
1.8926483991381231
  0
TEXT
  5
7192
  8
0
 10
75.409172058655429
 20
114.048641925933
 30
0.0
 40
2.0
  1
β
 72
     1
 11
76.275838725322089
 21
115.048641925933
 31
0.0
 73
     2
  0
LINE
  5
7193
  8
0
 10
73.775838725322089
 20
120.035233207056
 30
0.0
 11
73.775838725322089
 21
110.035233207056
 31
0.0
  0
LINE
  5
7194
  8
0
 10
78.775838725322089
 20
120.035233207056
 30
0.0
 11
78.775838725322089
 21
110.035233207056
 31
0.0
  0
TEXT
  5
7195
  8
0
 10
81.775838725322075
 20
68.785233207056081
 30
0.0
 40
2.5
  1
強風化
 11
81.775838725322075
 21
70.035233207056081
 31
0.0
 73
     2
  0
TEXT
  5
7196
  8
0
 10
81.775838725322075
 20
83.785233207056095
 30
0.0
 40
2.5
  1
風化
 11
81.775838725322075
 21
85.035233207056095
 31
0.0
 73
     2
  0
TEXT
  5
7197
  8
0
 10
81.775838725322075
 20
98.785233207055981
 30
0.0
 40
2.5
  1
弱風化
 11
81.775838725322075
 21
100.0352332070559
 31
0.0
 73
     2
  0
TEXT
  5
7198
  8
0
 10
81.775838725322075
 20
113.785233207056
 30
0.0
 40
2.5
  1
新鮮
 11
81.775838725322075
 21
115.035233207056
 31
0.0
 73
     2
  0
TEXT
  5
7199
  8
0
 10
73.251508781619066
 20
139.44399796584469
 30
0.0
 40
3.0
  1
風化
 11
73.251508781619066
 21
140.94399796584469
 31
0.0
 73
     2
  0
LINE
  5
719A
  8
0
 10
73.775838725322089
 20
135.035233207056
 30
0.0
 11
73.775838725322089
 21
125.0352332070559
 31
0.0
  0
LINE
  5
719B
  8
0
 10
78.775838725322089
 20
135.035233207056
 30
0.0
 11
78.775838725322089
 21
125.0352332070559
 31
0.0
  0
TEXT
  5
719C
  8
0
 10
75.275838725322089
 20
129.048641925933
 30
0.0
 40
2.0
  1
α
 72
     1
 11
76.275838725322089
 21
130.048641925933
 31
0.0
 73
     2
  0
CIRCLE
  5
719D
  8
0
 10
76.275838725322089
 20
130.048641925933
 30
0.0
 40
1.8926483991381231
  0
TEXT
  5
719E
  8
0
 10
81.775838725322075
 20
128.785233207056
 30
0.0
 40
2.5
  1
非常に新鮮
 11
81.775838725322075
 21
130.035233207056
 31
0.0
 73
     2
  0
TEXT
  5
719F
  8
0
 10
115.9178740851128
 20
83.785233207056095
 30
0.0
 40
2.5
  1
強変質
 11
115.9178740851128
 21
85.035233207056095
 31
0.0
 73
     2
  0
TEXT
  5
71A0
  8
0
 10
115.9178740851128
 20
113.785233207056
 30
0.0
 40
2.5
  1
弱変質
 11
115.9178740851128
 21
115.035233207056
 31
0.0
 73
     2
  0
TEXT
  5
71A1
  8
0
 10
115.9178740851128
 20
98.785233207055981
 30
0.0
 40
2.5
  1
中変質
 11
115.9178740851128
 21
100.0352332070559
 31
0.0
 73
     2
  0
LINE
  5
71A2
  8
0
 10
112.4178740851127
 20
90.035233207056095
 30
0.0
 11
112.4178740851127
 21
80.035233207056095
 31
0.0
  0
LINE
  5
71A3
  8
0
 10
111.9178740851128
 20
90.035233207056095
 30
0.0
 11
111.9178740851128
 21
85.699883000174879
 31
0.0
  0
LINE
  5
71A4
  8
0
 10
111.4178740851127
 20
90.035233207056095
 30
0.0
 11
111.4178740851127
 21
86.152605850853803
 31
0.0
  0
LINE
  5
71A5
  8
0
 10
110.9178740851127
 20
90.035233207056095
 30
0.0
 11
110.9178740851127
 21
86.371117837739831
 31
0.0
  0
LINE
  5
71A6
  8
0
 10
110.4178740851126
 20
90.035233207056095
 30
0.0
 11
110.4178740851126
 21
86.438357251811837
 31
0.0
  0
LINE
  5
71A7
  8
0
 10
109.9178740851127
 20
90.035233207056095
 30
0.0
 11
109.9178740851127
 21
86.371117837739831
 31
0.0
  0
LINE
  5
71A8
  8
0
 10
109.4178740851126
 20
90.035233207056095
 30
0.0
 11
109.4178740851126
 21
86.152605850853774
 31
0.0
  0
LINE
  5
71A9
  8
0
 10
108.9178740851127
 20
90.035233207056095
 30
0.0
 11
108.9178740851127
 21
85.699883000174864
 31
0.0
  0
LINE
  5
71AA
  8
0
 10
108.4178740851126
 20
90.035233207056095
 30
0.0
 11
108.4178740851126
 21
80.035233207056095
 31
0.0
  0
LINE
  5
71AB
  8
0
 10
107.9178740851127
 20
90.035233207056095
 30
0.0
 11
107.9178740851127
 21
80.035233207056095
 31
0.0
  0
LINE
  5
71AC
  8
0
 10
112.9178740851128
 20
90.035233207056095
 30
0.0
 11
112.9178740851128
 21
80.035233207056095
 31
0.0
  0
LINE
  5
71AD
  8
0
 10
107.9178740851127
 20
80.035233207056095
 30
0.0
 11
112.9178740851128
 21
80.035233207056095
 31
0.0
  0
LINE
  5
71AE
  8
0
 10
107.9178740851127
 20
80.535233207056095
 30
0.0
 11
112.9178740851128
 21
80.535233207056095
 31
0.0
  0
LINE
  5
71AF
  8
0
 10
107.9178740851127
 20
81.035233207056024
 30
0.0
 11
112.9178740851128
 21
81.035233207056024
 31
0.0
  0
LINE
  5
71B0
  8
0
 10
107.9178740851127
 20
81.535233207056095
 30
0.0
 11
112.9178740851128
 21
81.535233207056095
 31
0.0
  0
LINE
  5
71B1
  8
0
 10
107.9178740851127
 20
82.035233207056095
 30
0.0
 11
112.9178740851128
 21
82.035233207056095
 31
0.0
  0
LINE
  5
71B2
  8
0
 10
107.9178740851127
 20
82.535233207056095
 30
0.0
 11
112.9178740851128
 21
82.535233207056095
 31
0.0
  0
LINE
  5
71B3
  8
0
 10
107.9178740851127
 20
86.535233207056066
 30
0.0
 11
112.9178740851128
 21
86.535233207056066
 31
0.0
  0
LINE
  5
71B4
  8
0
 10
107.9178740851127
 20
87.035233207056081
 30
0.0
 11
112.9178740851128
 21
87.035233207056081
 31
0.0
  0
LINE
  5
71B5
  8
0
 10
107.9178740851127
 20
87.535233207056095
 30
0.0
 11
112.9178740851128
 21
87.535233207056095
 31
0.0
  0
LINE
  5
71B6
  8
0
 10
107.9178740851127
 20
88.035233207056081
 30
0.0
 11
112.9178740851128
 21
88.035233207056081
 31
0.0
  0
CIRCLE
  5
71B7
  8
0
 10
110.4178740851126
 20
84.545708852673727
 30
0.0
 40
1.8926483991381231
  0
TEXT
  5
71B8
  8
0
 10
109.751207418446
 20
83.545708852673727
 30
0.0
 40
2.0
  1
4
 72
     1
 11
110.4178740851126
 21
84.545708852673727
 31
0.0
 73
     2
  0
LINE
  5
71B9
  8
0
 10
108.9178740851127
 20
83.391534705172532
 30
0.0
 11
108.9178740851127
 21
80.035233207056095
 31
0.0
  0
LINE
  5
71BA
  8
0
 10
109.4178740851126
 20
82.938811854493665
 30
0.0
 11
109.4178740851126
 21
80.035233207056095
 31
0.0
  0
LINE
  5
71BB
  8
0
 10
109.9178740851127
 20
82.720299867607608
 30
0.0
 11
109.9178740851127
 21
80.035233207056095
 31
0.0
  0
LINE
  5
71BC
  8
0
 10
110.4178740851126
 20
82.653060453535588
 30
0.0
 11
110.4178740851126
 21
80.035233207056095
 31
0.0
  0
LINE
  5
71BD
  8
0
 10
107.9178740851127
 20
83.035233207056095
 30
0.0
 11
109.2774437773972
 21
83.035233207056095
 31
0.0
  0
LINE
  5
71BE
  8
0
 10
107.9178740851127
 20
83.535233207056024
 30
0.0
 11
108.81754382783031
 21
83.535233207056024
 31
0.0
  0
LINE
  5
71BF
  8
0
 10
107.9178740851127
 20
84.035233207056095
 30
0.0
 11
108.59536686208411
 21
84.035233207056095
 31
0.0
  0
LINE
  5
71C0
  8
0
 10
107.9178740851127
 20
84.535233207056095
 30
0.0
 11
108.5252546770939
 21
84.535233207056095
 31
0.0
  0
LINE
  5
71C1
  8
0
 10
107.9178740851127
 20
85.035233207056095
 30
0.0
 11
108.5896279667722
 21
85.035233207056095
 31
0.0
  0
LINE
  5
71C2
  8
0
 10
107.9178740851127
 20
85.535233207056095
 30
0.0
 11
108.8045050898596
 21
85.535233207056095
 31
0.0
  0
LINE
  5
71C3
  8
0
 10
107.9178740851127
 20
86.035233207056066
 30
0.0
 11
109.25021182210099
 21
86.035233207056066
 31
0.0
  0
LINE
  5
71C4
  8
0
 10
111.55830439282811
 20
83.035233207056095
 30
0.0
 11
112.9178740851128
 21
83.035233207056095
 31
0.0
  0
LINE
  5
71C5
  8
0
 10
111.58553634812461
 20
86.035233207056066
 30
0.0
 11
112.9178740851128
 21
86.035233207056066
 31
0.0
  0
LINE
  5
71C6
  8
0
 10
112.0312430803659
 20
85.535233207056095
 30
0.0
 11
112.9178740851128
 21
85.535233207056095
 31
0.0
  0
LINE
  5
71C7
  8
0
 10
112.2461202034532
 20
85.035233207056095
 30
0.0
 11
112.9178740851128
 21
85.035233207056095
 31
0.0
  0
LINE
  5
71C8
  8
0
 10
112.3104934931315
 20
84.535233207056095
 30
0.0
 11
112.9178740851128
 21
84.535233207056095
 31
0.0
  0
LINE
  5
71C9
  8
0
 10
111.9178740851128
 20
83.391534705172532
 30
0.0
 11
111.9178740851128
 21
80.035233207056095
 31
0.0
  0
LINE
  5
71CA
  8
0
 10
112.24038130814139
 20
84.035233207056095
 30
0.0
 11
112.9178740851128
 21
84.035233207056095
 31
0.0
  0
LINE
  5
71CB
  8
0
 10
111.4178740851127
 20
82.938811854493636
 30
0.0
 11
111.4178740851127
 21
80.035233207056095
 31
0.0
  0
LINE
  5
71CC
  8
0
 10
112.01820434239519
 20
83.535233207056024
 30
0.0
 11
112.9178740851128
 21
83.535233207056024
 31
0.0
  0
LINE
  5
71CD
  8
0
 10
110.9178740851127
 20
82.720299867607594
 30
0.0
 11
110.9178740851127
 21
80.035233207056095
 31
0.0
  0
LINE
  5
71CE
  8
0
 10
112.2003822359747
 20
94.959746652796937
 30
0.0
 11
107.9178740851127
 21
97.540468245259447
 31
0.0
  0
LINE
  5
71CF
  8
0
 10
112.9178740851128
 20
95.694912397170384
 30
0.0
 11
107.9178740851127
 21
98.708008346495205
 31
0.0
  0
LINE
  5
71D0
  8
0
 10
112.9178740851128
 20
96.862452498406086
 30
0.0
 11
111.26977811382631
 21
97.855626757442366
 31
0.0
  0
LINE
  5
71D1
  8
0
 10
107.9178740851127
 20
96.862452498406086
 30
0.0
 11
109.565970056399
 21
97.855626757442366
 31
0.0
  0
LINE
  5
71D2
  8
0
 10
107.9178740851127
 20
95.694912397170384
 30
0.0
 11
112.9178740851128
 21
98.708008346495205
 31
0.0
  0
LINE
  5
71D3
  8
0
 10
108.6353659342509
 20
94.959746652796937
 30
0.0
 11
112.9178740851128
 21
97.540468245259447
 31
0.0
  0
LINE
  5
71D4
  8
0
 10
112.9178740851128
 20
105.035233207056
 30
0.0
 11
112.9178740851128
 21
95.035233207056095
 31
0.0
  0
LINE
  5
71D5
  8
0
 10
107.9178740851127
 20
105.035233207056
 30
0.0
 11
107.9178740851127
 21
95.035233207056095
 31
0.0
  0
LINE
  5
71D6
  8
0
 10
107.9178740851127
 20
88.535233207056066
 30
0.0
 11
112.9178740851128
 21
88.535233207056066
 31
0.0
  0
LINE
  5
71D7
  8
0
 10
107.9178740851127
 20
89.035233207056066
 30
0.0
 11
112.9178740851128
 21
89.035233207056066
 31
0.0
  0
LINE
  5
71D8
  8
0
 10
107.9178740851127
 20
89.535233207056081
 30
0.0
 11
112.9178740851128
 21
89.535233207056081
 31
0.0
  0
LINE
  5
71D9
  8
0
 10
107.9178740851127
 20
90.035233207056095
 30
0.0
 11
112.9178740851128
 21
90.035233207056095
 31
0.0
  0
LINE
  5
71DA
  8
0
 10
110.6639271743574
 20
95.043166101965525
 30
0.0
 11
112.9178740851128
 21
96.378240271605904
 31
0.0
  0
LINE
  5
71DB
  8
0
 10
110.1718209958679
 20
95.043166101965525
 30
0.0
 11
107.9178740851127
 21
96.378240271605904
 31
0.0
  0
LINE
  5
71DC
  8
0
 10
112.9178740851128
 20
100.3650728021131
 30
0.0
 11
107.9178740851127
 21
103.3781687514378
 31
0.0
  0
LINE
  5
71DD
  8
0
 10
112.9178740851128
 20
101.53261290334871
 30
0.0
 11
107.9178740851127
 21
104.5457088526736
 31
0.0
  0
LINE
  5
71DE
  8
0
 10
112.9178740851128
 20
102.70015300458449
 30
0.0
 11
109.0704919279795
 21
104.9472981858831
 31
0.0
  0
CIRCLE
  5
71DF
  8
0
 10
110.4178740851126
 20
99.545708852673698
 30
0.0
 40
1.8926483991381231
  0
TEXT
  5
71E0
  8
0
 10
109.751207418446
 20
98.545708852673712
 30
0.0
 40
2.0
  1
3
 72
     1
 11
110.4178740851126
 21
99.545708852673698
 31
0.0
 73
     2
  0
LINE
  5
71E1
  8
0
 10
107.9178740851127
 20
100.3650728021131
 30
0.0
 11
112.9178740851128
 21
103.3781687514378
 31
0.0
  0
LINE
  5
71E2
  8
0
 10
107.9178740851127
 20
102.70015300458449
 30
0.0
 11
111.765256242246
 21
104.9472981858831
 31
0.0
  0
LINE
  5
71E3
  8
0
 10
107.9178740851127
 20
101.53261290334871
 30
0.0
 11
112.9178740851128
 21
104.5457088526736
 31
0.0
  0
LINE
  5
71E4
  8
0
 10
108.525575222829
 20
99.509336080440235
 30
0.0
 11
107.9178740851127
 21
99.875548447730665
 31
0.0
  0
LINE
  5
71E5
  8
0
 10
108.7927785004387
 20
100.51585435899339
 30
0.0
 11
107.9178740851127
 21
101.0430885489664
 31
0.0
  0
LINE
  5
71E6
  8
0
 10
109.5494925516542
 20
101.2273840517261
 30
0.0
 11
107.9178740851127
 21
102.2106286502021
 31
0.0
  0
LINE
  5
71E7
  8
0
 10
107.9178740851127
 20
99.197532700877446
 30
0.0
 11
108.5253101112545
 21
99.563585306845752
 31
0.0
  0
LINE
  5
71E8
  8
0
 10
107.9178740851127
 20
103.86769310582009
 30
0.0
 11
109.9067646529948
 21
105.050466299467
 31
0.0
  0
LINE
  5
71E9
  8
0
 10
107.9178740851127
 20
98.029992599641758
 30
0.0
 11
108.8008846970236
 21
98.562111739233757
 31
0.0
  0
LINE
  5
71EA
  8
0
 10
112.9178740851128
 20
98.029992599641758
 30
0.0
 11
112.0348634732017
 21
98.562111739233757
 31
0.0
  0
LINE
  5
71EB
  8
0
 10
112.9178740851128
 20
99.197532700877446
 30
0.0
 11
112.310438058971
 21
99.563585306845752
 31
0.0
  0
LINE
  5
71EC
  8
0
 10
112.9178740851128
 20
103.86769310582009
 30
0.0
 11
110.92898351723071
 21
105.050466299467
 31
0.0
  0
LINE
  5
71ED
  8
0
 10
111.2862556185712
 20
101.2273840517261
 30
0.0
 11
112.9178740851128
 21
102.2106286502021
 31
0.0
  0
LINE
  5
71EE
  8
0
 10
112.0429696697869
 20
100.51585435899339
 30
0.0
 11
112.9178740851128
 21
101.0430885489664
 31
0.0
  0
LINE
  5
71EF
  8
0
 10
112.3101729473965
 20
99.509336080440235
 30
0.0
 11
112.9178740851128
 21
99.875548447730665
 31
0.0
  0
TEXT
  5
71F0
  8
0
 10
109.751207418446
 20
113.5457088526736
 30
0.0
 40
2.0
  1
2
 72
     1
 11
110.4178740851126
 21
114.5457088526736
 31
0.0
 73
     2
  0
LINE
  5
71F1
  8
0
 10
112.3101729473965
 20
114.50933608044009
 30
0.0
 11
112.9178740851128
 21
114.87554844773059
 31
0.0
  0
CIRCLE
  5
71F2
  8
0
 10
110.4178740851126
 20
114.5457088526736
 30
0.0
 40
1.8926483991381231
  0
LINE
  5
71F3
  8
0
 10
107.9178740851127
 20
120.035233207056
 30
0.0
 11
107.9178740851127
 21
110.035233207056
 31
0.0
  0
LINE
  5
71F4
  8
0
 10
112.9178740851128
 20
120.035233207056
 30
0.0
 11
112.9178740851128
 21
110.035233207056
 31
0.0
  0
LINE
  5
71F5
  8
0
 10
110.6639271743574
 20
110.0431661019653
 30
0.0
 11
112.9178740851128
 21
111.3782402716058
 31
0.0
  0
LINE
  5
71F6
  8
0
 10
107.9178740851127
 20
110.6949123971703
 30
0.0
 11
112.9178740851128
 21
113.70800834649511
 31
0.0
  0
LINE
  5
71F7
  8
0
 10
108.6353659342509
 20
109.9597466527968
 30
0.0
 11
112.9178740851128
 21
112.54046824525931
 31
0.0
  0
LINE
  5
71F8
  8
0
 10
107.9178740851127
 20
114.1975327008773
 30
0.0
 11
108.5253101112545
 21
114.5635853068455
 31
0.0
  0
LINE
  5
71F9
  8
0
 10
107.9178740851127
 20
113.0299925996415
 30
0.0
 11
108.8008846970236
 21
113.5621117392336
 31
0.0
  0
LINE
  5
71FA
  8
0
 10
107.9178740851127
 20
111.8624524984058
 30
0.0
 11
109.565970056399
 21
112.8556267574421
 31
0.0
  0
LINE
  5
71FB
  8
0
 10
107.9178740851127
 20
115.3650728021131
 30
0.0
 11
112.9178740851128
 21
118.3781687514379
 31
0.0
  0
LINE
  5
71FC
  8
0
 10
107.9178740851127
 20
117.70015300458449
 30
0.0
 11
111.765256242246
 21
119.947298185883
 31
0.0
  0
LINE
  5
71FD
  8
0
 10
107.9178740851127
 20
116.53261290334881
 30
0.0
 11
112.9178740851128
 21
119.5457088526736
 31
0.0
  0
LINE
  5
71FE
  8
0
 10
107.9178740851127
 20
118.86769310582009
 30
0.0
 11
109.9067646529948
 21
120.0504662994669
 31
0.0
  0
LINE
  5
71FF
  8
0
 10
112.0429696697869
 20
115.51585435899349
 30
0.0
 11
112.9178740851128
 21
116.04308854896649
 31
0.0
  0
LINE
  5
7200
  8
0
 10
111.2862556185712
 20
116.2273840517262
 30
0.0
 11
112.9178740851128
 21
117.2106286502021
 31
0.0
  0
SOLID
  5
7201
  8
0
 10
138.6345623420101
 20
86.453142265636842
 30
0.0
 11
143.63456234201001
 21
86.453142265636842
 31
0.0
 12
138.6345623420101
 22
76.453142265636885
 32
0.0
 13
143.63456234201001
 23
76.453142265636885
 33
0.0
  0
LINE
  5
7202
  8
0
 10
138.6345623420101
 20
86.453142265636842
 30
0.0
 11
138.6345623420101
 21
76.453142265636885
 31
0.0
  0
LINE
  5
7203
  8
0
 10
143.63456234201001
 20
86.453142265636842
 30
0.0
 11
143.63456234201001
 21
76.453142265636885
 31
0.0
  0
LINE
  5
7204
  8
0
 10
142.63456234201001
 20
101.4531422656366
 30
0.0
 11
142.63456234201001
 21
91.453142265636856
 31
0.0
  0
LINE
  5
7205
  8
0
 10
138.6345623420101
 20
101.4531422656366
 30
0.0
 11
138.6345623420101
 21
91.453142265636856
 31
0.0
  0
LINE
  5
7206
  8
0
 10
139.6345623420101
 20
101.4531422656366
 30
0.0
 11
139.6345623420101
 21
91.453142265636856
 31
0.0
  0
LINE
  5
7207
  8
0
 10
143.63456234201001
 20
101.4531422656366
 30
0.0
 11
143.63456234201001
 21
91.453142265636856
 31
0.0
  0
TEXT
  5
7208
  8
0
 10
115.9178740851128
 20
128.785233207056
 30
0.0
 40
2.5
  1
非変質
 11
115.9178740851128
 21
130.035233207056
 31
0.0
 73
     2
  0
TEXT
  5
7209
  8
0
 10
108.13205605661651
 20
139.44399796584469
 30
0.0
 40
3.0
  1
変質
 11
108.13205605661651
 21
140.94399796584469
 31
0.0
 73
     2
  0
LINE
  5
720A
  8
0
 10
107.9178740851127
 20
135.035233207056
 30
0.0
 11
107.9178740851127
 21
125.0352332070559
 31
0.0
  0
LINE
  5
720B
  8
0
 10
112.9178740851128
 20
135.035233207056
 30
0.0
 11
112.9178740851128
 21
125.0352332070559
 31
0.0
  0
CIRCLE
  5
720C
  8
0
 10
110.4178740851126
 20
129.5457088526735
 30
0.0
 40
1.8926483991381231
  0
TEXT
  5
720D
  8
0
 10
110.0845407517793
 20
128.5457088526735
 30
0.0
 40
2.0
  1
1
 72
     1
 11
110.4178740851126
 21
129.5457088526735
 31
0.0
 73
     2
  0
CIRCLE
  5
720E
  8
0
 10
239.94763757692439
 20
61.491202559119827
 30
0.0
 40
2.0
  0
TEXT
  5
720F
  8
0
 10
238.78097091025771
 20
65.241202559119827
 30
0.0
 40
2.5
  1
水
 72
     1
 11
239.94763757692439
 21
66.491202559119827
 31
0.0
 73
     2
  0
CIRCLE
  5
7210
  8
0
 10
241.0946591810638
 20
134.0075433013983
 30
0.0
 40
0.4
  0
CIRCLE
  5
7211
  8
0
 10
241.0946591810638
 20
130.67354330139821
 30
0.0
 40
0.4
  0
CIRCLE
  5
7212
  8
0
 10
241.0946591810638
 20
127.33954330139839
 30
0.0
 40
0.4
  0
TEXT
  5
7213
  8
0
 10
236.28542084270271
 20
140.3558688288127
 30
0.0
 40
3.0
  1
保孔管
 11
236.28542084270271
 21
141.8558688288127
 31
0.0
 73
     2
  0
SOLID
  5
7214
  8
0
 10
238.5898725017959
 20
104.877758297882
 30
0.0
 11
243.5898725017959
 21
104.877758297882
 31
0.0
 12
238.5898725017959
 22
94.877758297882096
 32
0.0
 13
243.5898725017959
 23
94.877758297882096
 33
0.0
  0
TEXT
  5
7215
  8
0
 10
238.78097091025771
 20
60.241202559119827
 30
0.0
 40
2.5
  1
間
 72
     1
 11
239.94763757692439
 21
61.491202559119827
 31
0.0
 73
     2
  0
TEXT
  5
7216
  8
0
 10
238.2827115793522
 20
44.14710003384365
 30
0.0
 40
2.5
  1
カッコ内は副題を記入
 11
238.2827115793522
 21
45.39710003384365
 31
0.0
 73
     2
  0
TEXT
  5
7217
  8
0
 10
238.2550421822809
 20
48.955264061456738
 30
0.0
 40
3.0
  1
備考
 11
238.2550421822809
 21
50.455264061456752
 31
0.0
 73
     2
  0
TEXT
  5
7218
  8
0
 10
238.78097091025771
 20
70.241202559119827
 30
0.0
 40
2.5
  1
伸
 72
     1
 11
239.94763757692439
 21
71.491202559119827
 31
0.0
 73
     2
  0
TEXT
  5
7219
  8
0
 10
238.78097091025771
 20
75.241202559119799
 30
0.0
 40
2.5
  1
傾
 72
     1
 11
239.94763757692439
 21
76.491202559119799
 31
0.0
 73
     2
  0
CIRCLE
  5
721A
  8
0
 10
239.94763757692439
 20
66.491202559119827
 30
0.0
 40
2.0
  0
CIRCLE
  5
721B
  8
0
 10
239.94763757692439
 20
71.491202559119827
 30
0.0
 40
2.0
  0
CIRCLE
  5
721C
  8
0
 10
239.94763757692439
 20
76.491202559119799
 30
0.0
 40
2.0
  0
CIRCLE
  5
721D
  8
0
 10
239.94763757692439
 20
81.491202559119827
 30
0.0
 40
2.0
  0
TEXT
  5
721E
  8
0
 10
238.78097091025771
 20
80.241202559119827
 30
0.0
 40
2.5
  1
歪
 72
     1
 11
239.94763757692439
 21
81.491202559119827
 31
0.0
 73
     2
  0
TEXT
  5
721F
  8
0
 10
238.2550421822809
 20
85.721363304916366
 30
0.0
 40
3.0
  1
計測機器
 11
238.2550421822809
 21
87.221363304916366
 31
0.0
 73
     2
  0
TEXT
  5
7220
  8
0
 10
238.2827115793522
 20
33.117186463827309
 30
0.0
 40
2.5
  1
記入する項目の例
 11
238.2827115793522
 21
34.367186463827309
 31
0.0
 73
     2
  0
TEXT
  5
7221
  8
0
 10
238.40523536796431
 20
19.702986463827301
 30
0.0
 40
2.5
  1
その他
 11
238.40523536796431
 21
20.952986463827301
 31
0.0
 73
     2
  0
TEXT
  5
7222
  8
0
 10
238.40523536796431
 20
24.1743864638273
 30
0.0
 40
2.5
  1
試料採取位置
 11
238.40523536796431
 21
25.4243864638273
 31
0.0
 73
     2
  0
TEXT
  5
7223
  8
0
 10
238.40523536796431
 20
28.645786463827331
 30
0.0
 40
2.5
  1
原位置試験、
 11
238.40523536796431
 21
29.895786463827331
 31
0.0
 73
     2
  0
TEXT
  5
7224
  8
0
 10
238.2827115793522
 20
39.675670381059803
 30
0.0
 40
2.5
  1
本欄は文字列に限る
 11
238.2827115793522
 21
40.925670381059803
 31
0.0
 73
     2
  0
LINE
  5
7225
  8
0
 10
203.830643433913
 20
51.537323350372972
 30
0.0
 11
193.83064343391271
 21
51.537323350372972
 31
0.0
  0
LINE
  5
7226
  8
0
 10
193.83064343391271
 20
61.537323350372937
 30
0.0
 11
203.830643433913
 21
61.537323350372937
 31
0.0
  0
TEXT
  5
7227
  8
0
 10
192.413872877176
 20
128.785233207056
 30
0.0
 40
2.5
  1
汲：汲上げ法
 11
192.413872877176
 21
130.035233207056
 31
0.0
 73
     2
  0
TEXT
  5
7228
  8
0
 10
192.413872877176
 20
133.85058378263
 30
0.0
 40
2.5
  1
自：自然水位法
 11
192.413872877176
 21
135.10058378263
 31
0.0
 73
     2
  0
TEXT
  5
7229
  8
0
 10
192.413872877176
 20
139.44399796584469
 30
0.0
 40
3.0
  1
地下水検層
 11
192.413872877176
 21
140.94399796584469
 31
0.0
 73
     2
  0
LINE
  5
722A
  8
0
 10
193.83064343391271
 20
106.5373233503727
 30
0.0
 11
203.830643433913
 21
106.5373233503727
 31
0.0
  0
LINE
  5
722B
  8
0
 10
193.83064343391271
 20
106.5373233503727
 30
0.0
 11
203.830643433913
 21
106.5373233503727
 31
0.0
  0
LINE
  5
722C
  8
0
 10
193.83064343391271
 20
106.5373233503727
 30
0.0
 11
203.830643433913
 21
106.5373233503727
 31
0.0
  0
LINE
  5
722D
  8
0
 10
193.83064343391271
 20
76.537323350372958
 30
0.0
 11
203.830643433913
 21
76.537323350372958
 31
0.0
  0
LINE
  5
722E
  8
0
 10
193.83064343391271
 20
66.537323350372944
 30
0.0
 11
203.830643433913
 21
66.537323350372944
 31
0.0
  0
SOLID
  5
722F
  8
0
 10
193.83064343391271
 20
76.537323350372958
 30
0.0
 11
203.830643433913
 21
76.537323350372958
 31
0.0
 12
193.830643433913
 22
66.537323350372944
 32
0.0
 13
203.830643433913
 23
66.537323350372944
 33
0.0
  0
LINE
  5
7230
  8
0
 10
203.830643433913
 20
96.537323350372773
 30
0.0
 11
193.83064343391271
 21
96.537323350372773
 31
0.0
  0
LINE
  5
7231
  8
0
 10
193.83064343391271
 20
91.537323350372887
 30
0.0
 11
203.830643433913
 21
91.537323350372887
 31
0.0
  0
LINE
  5
7232
  8
0
 10
203.830643433913
 20
81.537323350372944
 30
0.0
 11
193.83064343391271
 21
81.537323350372944
 31
0.0
  0
TEXT
  5
7233
  8
0
 10
148.56281205234791
 20
80.203142265636814
 30
0.0
 40
2.5
  1
セメンテイング
 11
148.56281205234791
 21
81.453142265636814
 31
0.0
 73
     2
  0
TEXT
  5
7234
  8
0
 10
148.56281205234791
 20
95.203142265636885
 30
0.0
 40
2.5
  1
ケーシング
 11
148.56281205234791
 21
96.453142265636885
 31
0.0
 73
     2
  0
LINE
  5
7235
  8
0
 10
193.830643433913
 20
76.537323350372958
 30
0.0
 11
193.830643433913
 21
66.537323350372944
 31
0.0
  0
LINE
  5
7236
  8
0
 10
193.830643433913
 20
61.537323350372937
 30
0.0
 11
193.830643433913
 21
51.537323350372972
 31
0.0
  0
LINE
  5
7237
  8
0
 10
193.830643433913
 20
91.537323350372887
 30
0.0
 11
193.830643433913
 21
81.537323350372944
 31
0.0
  0
LINE
  5
7238
  8
0
 10
193.830643433913
 20
106.5373233503727
 30
0.0
 11
193.830643433913
 21
96.537323350372773
 31
0.0
  0
TEXT
  5
7239
  8
0
 10
208.75889314425061
 20
55.287323350372972
 30
0.0
 40
2.5
  1
その他
 11
208.75889314425061
 21
56.537323350372972
 31
0.0
 73
     2
  0
TEXT
  5
723A
  8
0
 10
208.75889314425061
 20
70.287323350372958
 30
0.0
 40
2.5
  1
非検出
 11
208.75889314425061
 21
71.537323350372958
 31
0.0
 73
     2
  0
TEXT
  5
723B
  8
0
 10
208.75889314425061
 20
85.287323350372887
 30
0.0
 40
2.5
  1
下降流状検出
 11
208.75889314425061
 21
86.537323350372887
 31
0.0
 73
     2
  0
TEXT
  5
723C
  8
0
 10
208.75889314425061
 20
100.2873233503727
 30
0.0
 40
2.5
  1
上昇流状検出
 11
208.75889314425061
 21
101.5373233503727
 31
0.0
 73
     2
  0
LINE
  5
723D
  8
0
 10
203.830643433913
 20
76.537323350372958
 30
0.0
 11
203.830643433913
 21
66.537323350372944
 31
0.0
  0
LINE
  5
723E
  8
0
 10
203.830643433913
 20
61.537323350372937
 30
0.0
 11
203.830643433913
 21
51.537323350372972
 31
0.0
  0
LINE
  5
723F
  8
0
 10
203.830643433913
 20
91.537323350372887
 30
0.0
 11
203.830643433913
 21
81.537323350372944
 31
0.0
  0
LINE
  5
7240
  8
0
 10
199.1158828162614
 20
82.900125452638378
 30
0.0
 11
198.1158828162614
 21
83.900125452638335
 31
0.0
  0
LINE
  5
7241
  8
0
 10
199.1158828162614
 20
82.900125452638378
 30
0.0
 11
200.11588281626149
 21
83.900125452638335
 31
0.0
  0
LINE
  5
7242
  8
0
 10
199.1158828162614
 20
89.900125452638278
 30
0.0
 11
199.1158828162614
 21
82.900125452638378
 31
0.0
  0
LINE
  5
7243
  8
0
 10
199.1158828162614
 20
105.15877071083121
 30
0.0
 11
199.1158828162614
 21
98.15877071083122
 31
0.0
  0
LINE
  5
7244
  8
0
 10
199.1158828162614
 20
105.15877071083121
 30
0.0
 11
200.11588281626149
 21
104.15877071083121
 31
0.0
  0
LINE
  5
7245
  8
0
 10
199.1158828162614
 20
105.15877071083121
 30
0.0
 11
198.1158828162614
 21
104.15877071083121
 31
0.0
  0
LINE
  5
7246
  8
0
 10
203.830643433913
 20
106.5373233503727
 30
0.0
 11
203.830643433913
 21
96.537323350372773
 31
0.0
  0
LINE
  5
7247
  8
0
 10
238.5898725017959
 20
104.877758297882
 30
0.0
 11
238.5898725017959
 21
94.877758297882096
 31
0.0
  0
LINE
  5
7248
  8
0
 10
238.5898725017959
 20
119.8777582978819
 30
0.0
 11
238.5898725017959
 21
109.877758297882
 31
0.0
  0
LINE
  5
7249
  8
0
 10
238.5898725017959
 20
134.877758297882
 30
0.0
 11
238.5898725017959
 21
124.877758297882
 31
0.0
  0
CIRCLE
  5
724A
  8
0
 10
240.2611591810637
 20
132.3405433013983
 30
0.0
 40
0.4
  0
CIRCLE
  5
724B
  8
0
 10
239.42765918106369
 20
130.67354330139821
 30
0.0
 40
0.4
  0
CIRCLE
  5
724C
  8
0
 10
239.42765918106369
 20
127.33954330139839
 30
0.0
 40
0.4
  0
CIRCLE
  5
724D
  8
0
 10
240.2611591810637
 20
125.67254330139831
 30
0.0
 40
0.4
  0
CIRCLE
  5
724E
  8
0
 10
240.2611591810637
 20
129.0065433013983
 30
0.0
 40
0.4
  0
CIRCLE
  5
724F
  8
0
 10
239.42765918106369
 20
134.0075433013983
 30
0.0
 40
0.4
  0
TEXT
  5
7250
  8
0
 10
243.7581270978084
 20
70.121483289567976
 30
0.0
 40
2.5
  1
垂直伸縮計、多層移動量計
 11
243.7581270978084
 21
71.371483289567976
 31
0.0
 73
     2
  0
TEXT
  5
7251
  8
0
 10
243.7581270978084
 20
80.121483289567948
 30
0.0
 40
2.5
  1
パイプひずみ計
 11
243.7581270978084
 21
81.371483289567948
 31
0.0
 73
     2
  0
TEXT
  5
7252
  8
0
 10
243.7581270978084
 20
65.121483289567976
 30
0.0
 40
2.5
  1
地下水位計
 11
243.7581270978084
 21
66.371483289567976
 31
0.0
 73
     2
  0
TEXT
  5
7253
  8
0
 10
243.7581270978084
 20
60.121483289567969
 30
0.0
 40
2.5
  1
間隙水圧計
 11
243.7581270978084
 21
61.371483289567969
 31
0.0
 73
     2
  0
TEXT
  5
7254
  8
0
 10
243.7581270978084
 20
75.241202559119799
 30
0.0
 40
2.5
  1
孔内傾斜計
 11
243.7581270978084
 21
76.491202559119799
 31
0.0
 73
     2
  0
TEXT
  5
7255
  8
0
 10
248.51812221213359
 20
98.627758297882082
 30
0.0
 40
2.5
  1
遮水区間
 11
248.51812221213359
 21
99.877758297882082
 31
0.0
 73
     2
  0
TEXT
  5
7256
  8
0
 10
248.51812221213359
 20
113.6277582978819
 30
0.0
 40
2.5
  1
無孔区間
 11
248.51812221213359
 21
114.8777582978819
 31
0.0
 73
     2
  0
LINE
  5
7257
  8
0
 10
243.5898725017959
 20
104.877758297882
 30
0.0
 11
243.5898725017959
 21
94.877758297882096
 31
0.0
  0
LINE
  5
7258
  8
0
 10
243.5898725017959
 20
119.8777582978819
 30
0.0
 11
243.5898725017959
 21
109.877758297882
 31
0.0
  0
TEXT
  5
7259
  8
0
 10
248.51812221213359
 20
128.627758297882
 30
0.0
 40
2.5
  1
有孔区間
 11
248.51812221213359
 21
129.877758297882
 31
0.0
 73
     2
  0
CIRCLE
  5
725A
  8
0
 10
241.9281591810639
 20
132.3405433013983
 30
0.0
 40
0.4
  0
LINE
  5
725B
  8
0
 10
243.5898725017959
 20
134.877758297882
 30
0.0
 11
243.5898725017959
 21
124.877758297882
 31
0.0
  0
CIRCLE
  5
725C
  8
0
 10
241.9281591810639
 20
129.0065433013983
 30
0.0
 40
0.4
  0
CIRCLE
  5
725D
  8
0
 10
242.76165918106381
 20
130.67354330139821
 30
0.0
 40
0.4
  0
CIRCLE
  5
725E
  8
0
 10
242.76165918106381
 20
127.33954330139839
 30
0.0
 40
0.4
  0
CIRCLE
  5
725F
  8
0
 10
241.9281591810639
 20
125.67254330139831
 30
0.0
 40
0.4
  0
CIRCLE
  5
7260
  8
0
 10
242.76165918106381
 20
134.0075433013983
 30
0.0
 40
0.4
  0
TEXT
  5
7261
  8
0
 10
195.32666484236159
 20
680.79630345513101
 30
0.0
 40
3.0
  1
地　　下　　水　　文
 72
     1
 11
212.92666484236159
 21
680.39630345513103
 31
0.0
 73
     1
  0
TEXT
  5
7262
  8
0
 10
198.46370386358581
 20
675.67080819121793
 30
0.0
 40
2.0
  1
作業日毎の孔内水位
 72
     1
 11
208.99703719691911
 21
675.40414152455116
 31
0.0
 73
     1
  0
TEXT
  5
7263
  8
0
 10
225.31935636474981
 20
675.48305807439112
 30
0.0
 40
2.5
  1
孔壁保護
 72
     1
 11
230.98602303141641
 21
675.14972474105775
 31
0.0
 73
     1
  0
TEXT
  5
7264
  8
0
 10
232.6666666666666
 20
661.24750007882085
 30
0.0
 40
2.5
  1
理 由
 72
     4
 11
236.0
 21
662.49750007882085
 31
0.0
  0
TEXT
  5
7265
  8
0
 10
232.58333333333329
 20
671.01901398764596
 30
0.0
 40
2.5
  1
実 施
 72
     4
 11
236.0
 21
672.26901398764596
 31
0.0
  0
TEXT
  5
7266
  8
0
 10
247.9601105762938
 20
676.89284323383265
 30
0.0
 40
2.5
  1
地下水検層
  7
STANDATDT
 72
     4
 11
247.9601105762938
 21
669.64284323383265
 31
0.0
  0
TEXT
  5
7267
  8
0
 10
243.79479831475291
 20
665.75805984049885
 30
0.0
 40
2.5
  1
汲
  7
STANDATDT
 72
     4
 11
243.79479831475291
 21
664.50805984049885
 31
0.0
  0
TEXT
  5
7268
  8
0
 10
243.79479831475291
 20
677.40631691394674
 30
0.0
 40
2.5
  1
方法
  7
STANDATDT
 72
     4
 11
243.79479831475291
 21
674.65631691394674
 31
0.0
  0
TEXT
  5
7269
  8
0
 10
243.88318706893361
 20
668.32255227741564
 30
0.0
 40
2.5
  1
・
  7
STANDATDT
 72
     4
 11
243.88318706893361
 21
666.90588561074901
 31
0.0
  0
TEXT
  5
726A
  8
0
 10
243.79479831475291
 20
670.27531049204333
 30
0.0
 40
2.5
  1
自
  7
STANDATDT
 72
     4
 11
243.79479831475291
 21
668.94197715870985
 31
0.0
  0
TEXT
  5
726B
  8
0
 10
253.53720931285639
 20
682.89284323383276
 30
0.0
 40
2.5
  1
保　　孔　　管
  7
STANDATDT
 72
     4
 11
253.53720931285639
 21
672.64284323383276
 31
0.0
  0
TEXT
  5
726C
  8
0
 10
258.49999999999989
 20
682.89284323383276
 30
0.0
 40
2.5
  1
計　測　機　器
  7
STANDATDT
 72
     4
 11
258.49999999999989
 21
672.64284323383276
 31
0.0
  0
TEXT
  5
726D
  8
0
 10
264.22598708334681
 20
671.20581604591359
 30
0.0
 40
2.5
  1
（　　　　　）
 72
     1
 11
274.30932041668012
 21
670.87248271258022
 31
0.0
 73
     1
  0
TEXT
  5
726E
  8
0
 10
265.7093204166801
 20
678.23337936780956
 30
0.0
 40
3.0
  1
備　　　考
 72
     1
 11
274.30932041668012
 21
677.83337936780947
 31
0.0
 73
     1
  0
TEXT
  5
726F
  8
0
 10
228.41833910692731
 20
673.10969654483085
 30
0.0
 40
2.5
  1
種　　類
  7
STANDATDT
 72
     4
 11
228.41833910692731
 21
667.35969654483085
 31
0.0
  0
TEXT
  5
7270
  8
0
 10
223.40645648222841
 20
673.17596981139047
 30
0.0
 40
2.5
  1
孔 径
  7
STANDATDT
 72
     4
 11
223.40645648222841
 21
669.67596981139059
 31
0.0
  0
TEXT
  5
7271
  8
0
 10
219.02538429870469
 20
673.50277753048567
 30
0.0
 40
2.0
  1
ケ
  7
STANDATDT
 72
     4
 11
219.02538429870469
 21
672.50277753048556
 31
0.0
  0
TEXT
  5
7272
  8
0
 10
214.9390900392535
 20
673.34596473559407
 30
0.0
 40
2.0
  1
下端深度
  7
STANDATDT
 72
     4
 11
214.9390900392535
 21
668.67929806892744
 31
0.0
  0
TEXT
  5
7273
  8
0
 10
220.4908645605299
 20
660.94851173445454
 30
0.0
 40
1.5
  1
（mm）
 72
     1
 11
223.19086456052989
 21
662.44851173445454
 31
0.0
 73
     3
  0
TEXT
  5
7274
  8
0
 10
213.55864189052579
 20
661.09544017128519
 30
0.0
 40
1.5
  1
（ｍ）
 72
     1
 11
216.00864189052581
 21
662.5954401712853
 31
0.0
 73
     3
  0
TEXT
  5
7275
  8
0
 10
206.55000000000001
 20
661.09544017128519
 30
0.0
 40
1.5
  1
（ｍ）
 72
     1
 11
209.0
 21
662.5954401712853
 31
0.0
 73
     3
  0
TEXT
  5
7276
  8
0
 10
206.0
 20
666.25786127255765
 30
0.0
 40
1.8
  1
作業後
 72
     1
 11
209.0
 21
668.05786127255772
 31
0.0
 73
     3
  0
LINE
  5
7277
  8
0
 10
205.55327652769159
 20
665.59227724000039
 30
0.0
 11
212.30281296402401
 21
665.59227724000039
 31
0.0
  0
TEXT
  5
7278
  8
0
 10
206.35447523153769
 20
669.01336875479331
 30
0.0
 40
2.0
  1
水 位
 72
     4
 11
209.08780856487101
 21
670.01336875479331
 31
0.0
  0
TEXT
  5
7279
  8
0
 10
206.42114189820441
 20
671.45783885169374
 30
0.0
 40
2.0
  1
孔 内
 72
     4
 11
209.08780856487101
 21
672.45783885169374
 31
0.0
  0
TEXT
  5
727A
  8
0
 10
200.8152283021663
 20
672.93794499172327
 30
0.0
 40
2.5
  1
掘進月日
  7
STANDATDT
 72
     4
 11
200.8152283021663
 21
667.27127832505676
 31
0.0
  0
TEXT
  5
727B
  8
0
 10
188.45617209643979
 20
661.09570024504842
 30
0.0
 40
1.5
  1
（l/分）
 72
     1
 11
192.0311720964398
 21
662.59570024504831
 31
0.0
 73
     3
  0
TEXT
  5
727C
  8
0
 10
192.24753160322939
 20
677.41771661845985
 30
0.0
 40
3.0
  1
排 水 量
  7
STANDATDT
 72
     4
 11
192.24753160322939
 21
670.51771661845976
 31
0.0
  0
TEXT
  5
727D
  8
0
 10
182.24753160322939
 20
677.41771661845985
 30
0.0
 40
3.0
  1
送 水 量
  7
STANDATDT
 72
     4
 11
182.24753160322939
 21
670.51771661845976
 31
0.0
  0
TEXT
  5
727E
  8
0
 10
178.45617209643979
 20
661.09570024504842
 30
0.0
 40
1.5
  1
（l/分）
 72
     1
 11
182.0311720964398
 21
662.59570024504831
 31
0.0
 73
     3
  0
TEXT
  5
727F
  8
0
 10
206.0
 20
663.25006857333256
 30
0.0
 40
1.8
  1
作業前
 72
     1
 11
209.0
 21
665.05006857333251
 31
0.0
 73
     3
  0
TEXT
  5
7282
  8
0
 10
227.35040231287661
 20
4.6677950047653374
 30
0.0
 40
3.0
  1
地すべり調査用ボーリング柱状図様式
 11
227.35040231287661
 21
6.1677950047653374
 31
0.0
 73
     2
  0
LINE
  5
7283
  8
0
 10
10.0
 20
159.14284323383251
 30
0.0
 11
10.0
 21
659.14284323383265
 31
0.0
  0
LINE
  5
7284
  8
0
 10
10.0
 20
659.14284323383265
 30
0.0
 11
288.0
 21
659.14284323383265
 31
0.0
  0
LINE
  5
7285
  8
0
 10
288.0
 20
659.14284323383265
 30
0.0
 11
288.0
 21
159.14284323383251
 31
0.0
  0
LINE
  5
7286
  8
0
 10
288.0
 20
159.14284323383251
 30
0.0
 11
10.0
 21
159.14284323383251
 31
0.0
  0
LINE
  5
7287
  8
0
 10
10.0
 20
660.14284323383276
 30
0.0
 11
10.0
 21
685.14284323383276
 31
0.0
  0
LINE
  5
7288
  8
0
 10
10.0
 20
685.14284323383276
 30
0.0
 11
288.0
 21
685.14284323383276
 31
0.0
  0
LINE
  5
7289
  8
0
 10
288.0
 20
685.14284323383276
 30
0.0
 11
288.0
 21
660.14284323383276
 31
0.0
  0
LINE
  5
728A
  8
0
 10
288.0
 20
660.14284323383276
 30
0.0
 11
10.0
 21
660.14284323383276
 31
0.0
  0
TEXT
  5
728B
  8
0
 10
245.044798314753
 20
671.00168847969871
 30
0.0
 40
2.5
  1
（
 50
270.0
  7
STANDATDT
 72
     4
 11
243.79479831475291
 21
671.00168847969871
 31
0.0
  0
TEXT
  5
728C
  8
0
 10
245.044798314753
 20
661.65813477789345
 30
0.0
 40
2.5
  1
）
 50
270.0
  7
STANDATDT
 72
     4
 11
243.79479831475291
 21
661.65813477789345
 31
0.0
  0
LINE
  5
728D
  8
0
 10
19.786519179760031
 20
130.87217226131119
 30
0.0
 11
20.516901251921119
 21
130.87217226131119
 31
0.0
  0
LINE
  5
728E
  8
0
 10
19.786519179760031
 20
129.2026934649831
 30
0.0
 11
20.516901251921119
 21
129.2026934649831
 31
0.0
  0
LINE
  5
728F
  8
0
 10
20.143847232452341
 20
130.8712934649831
 30
0.0
 11
20.143847232452341
 21
129.2026934649831
 31
0.0
  0
LINE
  5
7290
  8
0
 10
19.43203432979498
 20
115.8826330157984
 30
0.0
 11
20.859653627935121
 21
115.8826330157984
 31
0.0
  0
LINE
  5
7291
  8
0
 10
19.43203432979498
 20
114.2139903627988
 30
0.0
 11
20.859653627935121
 21
114.2139903627988
 31
0.0
  0
LINE
  5
7292
  8
0
 10
19.822057020734519
 20
115.8826330157984
 30
0.0
 11
19.822057020734519
 21
114.2139903627988
 31
0.0
  0
LINE
  5
7293
  8
0
 10
20.461111998885809
 20
115.8826330157984
 30
0.0
 11
20.461111998885809
 21
114.2139903627988
 31
0.0
  0
LINE
  5
7294
  8
0
 10
20.14590036830667
 20
100.8821989739961
 30
0.0
 11
20.14590036830667
 21
99.213598973996326
 31
0.0
  0
LINE
  5
7295
  8
0
 10
19.25288594169001
 20
100.8821989739961
 30
0.0
 11
21.038914794923361
 21
100.8821989739961
 31
0.0
  0
LINE
  5
7296
  8
0
 10
19.616590899104711
 20
100.8801376850861
 30
0.0
 11
19.616590899104711
 21
99.213598973996326
 31
0.0
  0
LINE
  5
7297
  8
0
 10
19.25288594169001
 20
99.213598973996326
 30
0.0
 11
21.038914794923361
 21
99.213598973996326
 31
0.0
  0
LINE
  5
7298
  8
0
 10
20.675209837508628
 20
100.8801376850861
 30
0.0
 11
20.675209837508628
 21
99.213598973996326
 31
0.0
  0
LINE
  5
7299
  8
0
 10
19.10130474289188
 20
85.881191193623692
 30
0.0
 11
20.345220560929871
 21
85.881191193623692
 31
0.0
  0
LINE
  5
729A
  8
0
 10
19.10130474289188
 20
84.211712397295514
 30
0.0
 11
19.831686815052969
 21
84.211712397295514
 31
0.0
  0
LINE
  5
729B
  8
0
 10
19.45863279558419
 20
85.880312397295526
 30
0.0
 11
19.45863279558419
 21
84.211712397295514
 31
0.0
  0
LINE
  5
729C
  8
0
 10
20.870450904686891
 20
85.881191193623692
 30
0.0
 11
21.33265346838844
 21
85.881191193623692
 31
0.0
  0
LINE
  5
729D
  8
0
 10
20.059496128396169
 20
85.881191193623692
 30
0.0
 11
20.580524157466922
 21
84.211712397295514
 31
0.0
  0
LINE
  5
729E
  8
0
 10
21.101552186537671
 20
85.881191193623692
 30
0.0
 11
20.580524157466922
 21
84.211712397295514
 31
0.0
  0
LINE
  5
729F
  8
0
 10
20.788700094994621
 20
70.85640515478967
 30
0.0
 11
21.250902658696191
 21
70.85640515478967
 31
0.0
  0
LINE
  5
72A0
  8
0
 10
21.01980137684539
 20
70.85640515478967
 30
0.0
 11
20.303705786570159
 21
69.186926358461506
 31
0.0
  0
LINE
  5
72A1
  8
0
 10
19.5876101962949
 20
70.85640515478967
 30
0.0
 11
20.303705786570159
 21
69.186926358461506
 31
0.0
  0
LINE
  5
72A2
  8
0
 10
19.35650891444412
 20
70.85640515478967
 30
0.0
 11
19.818711478145701
 21
70.85640515478967
 31
0.0
  0
LINE
  5
72A3
  8
0
 10
21.142610080002441
 20
55.872163618096472
 30
0.0
 11
20.063151899264771
 21
55.872163618096472
 31
0.0
  0
LINE
  5
72A4
  8
0
 10
21.142610080002441
 20
54.202684821768329
 30
0.0
 11
20.41222800784135
 21
54.202684821768329
 31
0.0
  0
LINE
  5
72A5
  8
0
 10
20.785282027310121
 20
55.871284821768327
 30
0.0
 11
20.785282027310121
 21
54.202684821768329
 31
0.0
  0
LINE
  5
72A6
  8
0
 10
19.537921555507751
 20
55.872163618096472
 30
0.0
 11
19.07571899180617
 21
55.872163618096472
 31
0.0
  0
LINE
  5
72A7
  8
0
 10
20.348876331798461
 20
55.872163618096472
 30
0.0
 11
19.827848302727709
 21
54.202684821768329
 31
0.0
  0
LINE
  5
72A8
  8
0
 10
19.30682027365696
 20
55.872163618096472
 30
0.0
 11
19.827848302727709
 21
54.202684821768329
 31
0.0
  0
LINE
  5
72A9
  8
0
 10
21.183936293034542
 20
40.880066624696632
 30
0.0
 11
19.99854521484712
 21
40.880066624696632
 31
0.0
  0
LINE
  5
72AA
  8
0
 10
21.192369270801009
 20
39.21058782836846
 30
0.0
 11
20.26402438291597
 21
39.21058782836846
 31
0.0
  0
LINE
  5
72AB
  8
0
 10
20.949717108833958
 20
40.879187828368472
 30
0.0
 11
20.949717108833958
 21
39.21058782836846
 31
0.0
  0
LINE
  5
72AC
  8
0
 10
19.512934960215141
 20
40.880066624696632
 30
0.0
 11
19.05073239651357
 21
40.880066624696632
 31
0.0
  0
LINE
  5
72AD
  8
0
 10
20.229287339332121
 20
40.880066624696632
 30
0.0
 11
19.739374136549021
 21
39.21058782836846
 31
0.0
  0
LINE
  5
72AE
  8
0
 10
20.507662058814262
 20
40.879187828368472
 30
0.0
 11
20.507662058814262
 21
39.21058782836846
 31
0.0
  0
LINE
  5
72AF
  8
0
 10
19.28183367836435
 20
40.880066624696632
 30
0.0
 11
19.739374136549021
 21
39.21058782836846
 31
0.0
  0
LINE
  5
72B0
  8
0
 10
21.246420999392051
 20
25.883243506524451
 30
0.0
 11
19.754165520818781
 21
25.883243506524451
 31
0.0
  0
LINE
  5
72B1
  8
0
 10
21.254853977158518
 20
24.213764710196301
 30
0.0
 11
20.02674340571501
 21
24.213764710196301
 31
0.0
  0
LINE
  5
72B2
  8
0
 10
21.012201815191471
 20
25.882364710196299
 30
0.0
 11
21.012201815191471
 21
24.213764710196301
 31
0.0
  0
LINE
  5
72B3
  8
0
 10
19.47367749857505
 20
25.883243506524451
 30
0.0
 11
19.01147493487349
 21
25.883243506524451
 31
0.0
  0
LINE
  5
72B4
  8
0
 10
20.640798691436771
 20
25.882364710196299
 30
0.0
 11
20.640798691436771
 21
24.213764710196301
 31
0.0
  0
LINE
  5
72B5
  8
0
 10
19.24257621672427
 20
25.883243506524451
 30
0.0
 11
19.659136298948621
 21
24.213764710196301
 31
0.0
  0
LINE
  5
72B6
  8
0
 10
20.269395567682071
 20
25.882364710196299
 30
0.0
 11
20.269395567682071
 21
24.213764710196301
 31
0.0
  0
LINE
  5
72B7
  8
0
 10
20.075696381172961
 20
25.883243506524451
 30
0.0
 11
19.659136298948621
 21
24.213764710196301
 31
0.0
  0
TEXT
  5
72B8
  8
0
 10
219.02538429870469
 20
669.85196567153332
 30
0.0
 40
2.0
  1
シング
  7
STANDATDT
 72
     4
 11
219.02538429870469
 21
666.45196567153334
 31
0.0
  0
TEXT
  5
72B9
  8
0
 10
219.02538429870469
 20
670.64559776027158
 30
0.0
 40
2.0
  1
-
 50
90.0
  7
STANDATDT
 72
     4
 11
219.02538429870469
 21
670.64559776027158
 31
0.0
  0
LINE
  5
72BA
  8
0
 10
10.0
 20
359.14284323383282
 30
0.0
 11
13.0
 21
359.14284323383282
 31
0.0
  0
TEXT
  5
72BB
  8
0
 10
15.33042310703968
 20
358.14284323383282
 30
0.0
 40
2.0
  1
30
 72
     2
 11
18.330423107039682
 21
359.14284323383282
 31
0.0
 73
     2
  0
TEXT
  5
72BC
  8
0
 10
14.997089773706341
 20
268.14284323383271
 30
0.0
 40
2.0
  1
39
 72
     2
 11
18.330423107039682
 21
269.14284323383271
 31
0.0
 73
     2
  0
LINE
  5
72BD
  8
0
 10
10.0
 20
259.14284323383271
 30
0.0
 11
13.0
 21
259.14284323383271
 31
0.0
  0
LINE
  5
72BE
  8
0
 10
10.0
 20
260.14284323383271
 30
0.0
 11
11.0
 21
260.14284323383271
 31
0.0
  0
LINE
  5
72BF
  8
0
 10
10.0
 20
269.14284323383271
 30
0.0
 11
13.0
 21
269.14284323383271
 31
0.0
  0
LINE
  5
72C0
  8
0
 10
10.0
 20
268.14284323383271
 30
0.0
 11
11.0
 21
268.14284323383271
 31
0.0
  0
LINE
  5
72C1
  8
0
 10
10.0
 20
267.14284323383271
 30
0.0
 11
11.0
 21
267.14284323383271
 31
0.0
  0
LINE
  5
72C2
  8
0
 10
10.0
 20
266.14284323383271
 30
0.0
 11
11.0
 21
266.14284323383271
 31
0.0
  0
LINE
  5
72C3
  8
0
 10
10.0
 20
265.14284323383271
 30
0.0
 11
11.0
 21
265.14284323383271
 31
0.0
  0
LINE
  5
72C4
  8
0
 10
10.0
 20
264.14284323383271
 30
0.0
 11
12.0
 21
264.14284323383271
 31
0.0
  0
LINE
  5
72C5
  8
0
 10
10.0
 20
261.14284323383271
 30
0.0
 11
11.0
 21
261.14284323383271
 31
0.0
  0
LINE
  5
72C6
  8
0
 10
10.0
 20
262.14284323383271
 30
0.0
 11
11.0
 21
262.14284323383271
 31
0.0
  0
LINE
  5
72C7
  8
0
 10
10.0
 20
263.14284323383271
 30
0.0
 11
11.0
 21
263.14284323383271
 31
0.0
  0
TEXT
  5
72C8
  8
0
 10
15.33042310703968
 20
258.14284323383271
 30
0.0
 40
2.0
  1
40
 72
     2
 11
18.330423107039682
 21
259.14284323383271
 31
0.0
 73
     2
  0
LINE
  5
72C9
  8
0
 10
10.0
 20
278.14284323383271
 30
0.0
 11
11.0
 21
278.14284323383271
 31
0.0
  0
LINE
  5
72CA
  8
0
 10
10.0
 20
277.14284323383271
 30
0.0
 11
11.0
 21
277.14284323383271
 31
0.0
  0
LINE
  5
72CB
  8
0
 10
10.0
 20
276.14284323383271
 30
0.0
 11
11.0
 21
276.14284323383271
 31
0.0
  0
LINE
  5
72CC
  8
0
 10
10.0
 20
275.14284323383271
 30
0.0
 11
11.0
 21
275.14284323383271
 31
0.0
  0
LINE
  5
72CD
  8
0
 10
10.0
 20
272.14284323383271
 30
0.0
 11
11.0
 21
272.14284323383271
 31
0.0
  0
LINE
  5
72CE
  8
0
 10
10.0
 20
273.14284323383271
 30
0.0
 11
11.0
 21
273.14284323383271
 31
0.0
  0
LINE
  5
72CF
  8
0
 10
10.0
 20
274.14284323383271
 30
0.0
 11
12.0
 21
274.14284323383271
 31
0.0
  0
LINE
  5
72D0
  8
0
 10
10.0
 20
270.14284323383271
 30
0.0
 11
11.0
 21
270.14284323383271
 31
0.0
  0
LINE
  5
72D1
  8
0
 10
10.0
 20
271.14284323383271
 30
0.0
 11
11.0
 21
271.14284323383271
 31
0.0
  0
LINE
  5
72D2
  8
0
 10
10.0
 20
279.14284323383271
 30
0.0
 11
13.0
 21
279.14284323383271
 31
0.0
  0
LINE
  5
72D3
  8
0
 10
10.0
 20
281.14284323383271
 30
0.0
 11
11.0
 21
281.14284323383271
 31
0.0
  0
LINE
  5
72D4
  8
0
 10
10.0
 20
282.14284323383282
 30
0.0
 11
11.0
 21
282.14284323383282
 31
0.0
  0
LINE
  5
72D5
  8
0
 10
10.0
 20
286.14284323383282
 30
0.0
 11
11.0
 21
286.14284323383282
 31
0.0
  0
LINE
  5
72D6
  8
0
 10
10.0
 20
285.14284323383282
 30
0.0
 11
11.0
 21
285.14284323383282
 31
0.0
  0
LINE
  5
72D7
  8
0
 10
10.0
 20
283.14284323383271
 30
0.0
 11
11.0
 21
283.14284323383271
 31
0.0
  0
LINE
  5
72D8
  8
0
 10
10.0
 20
284.14284323383282
 30
0.0
 11
12.0
 21
284.14284323383282
 31
0.0
  0
LINE
  5
72D9
  8
0
 10
10.0
 20
280.14284323383271
 30
0.0
 11
11.0
 21
280.14284323383271
 31
0.0
  0
TEXT
  5
72DA
  8
0
 10
14.997089773706341
 20
278.14284323383271
 30
0.0
 40
2.0
  1
38
 72
     2
 11
18.330423107039682
 21
279.14284323383271
 31
0.0
 73
     2
  0
LINE
  5
72DB
  8
0
 10
10.0
 20
289.14284323383282
 30
0.0
 11
13.0
 21
289.14284323383282
 31
0.0
  0
LINE
  5
72DC
  8
0
 10
10.0
 20
290.14284323383282
 30
0.0
 11
11.0
 21
290.14284323383282
 31
0.0
  0
LINE
  5
72DD
  8
0
 10
10.0
 20
291.14284323383282
 30
0.0
 11
11.0
 21
291.14284323383282
 31
0.0
  0
LINE
  5
72DE
  8
0
 10
10.0
 20
292.14284323383282
 30
0.0
 11
11.0
 21
292.14284323383282
 31
0.0
  0
LINE
  5
72DF
  8
0
 10
10.0
 20
293.14284323383282
 30
0.0
 11
11.0
 21
293.14284323383282
 31
0.0
  0
LINE
  5
72E0
  8
0
 10
10.0
 20
295.14284323383282
 30
0.0
 11
11.0
 21
295.14284323383282
 31
0.0
  0
LINE
  5
72E1
  8
0
 10
10.0
 20
294.14284323383282
 30
0.0
 11
12.0
 21
294.14284323383282
 31
0.0
  0
LINE
  5
72E2
  8
0
 10
10.0
 20
288.14284323383282
 30
0.0
 11
11.0
 21
288.14284323383282
 31
0.0
  0
LINE
  5
72E3
  8
0
 10
10.0
 20
287.14284323383282
 30
0.0
 11
11.0
 21
287.14284323383282
 31
0.0
  0
LINE
  5
72E4
  8
0
 10
10.0
 20
299.14284323383282
 30
0.0
 11
13.0
 21
299.14284323383282
 31
0.0
  0
LINE
  5
72E5
  8
0
 10
10.0
 20
298.14284323383282
 30
0.0
 11
11.0
 21
298.14284323383282
 31
0.0
  0
LINE
  5
72E6
  8
0
 10
10.0
 20
297.14284323383282
 30
0.0
 11
11.0
 21
297.14284323383282
 31
0.0
  0
LINE
  5
72E7
  8
0
 10
10.0
 20
300.14284323383282
 30
0.0
 11
11.0
 21
300.14284323383282
 31
0.0
  0
LINE
  5
72E8
  8
0
 10
10.0
 20
301.14284323383282
 30
0.0
 11
11.0
 21
301.14284323383282
 31
0.0
  0
LINE
  5
72E9
  8
0
 10
10.0
 20
302.14284323383282
 30
0.0
 11
11.0
 21
302.14284323383282
 31
0.0
  0
LINE
  5
72EA
  8
0
 10
10.0
 20
303.14284323383282
 30
0.0
 11
11.0
 21
303.14284323383282
 31
0.0
  0
LINE
  5
72EB
  8
0
 10
10.0
 20
304.14284323383282
 30
0.0
 11
12.0
 21
304.14284323383282
 31
0.0
  0
LINE
  5
72EC
  8
0
 10
10.0
 20
296.14284323383282
 30
0.0
 11
11.0
 21
296.14284323383282
 31
0.0
  0
TEXT
  5
72ED
  8
0
 10
14.99708977370635
 20
288.14284323383282
 30
0.0
 40
2.0
  1
37
 72
     2
 11
18.330423107039682
 21
289.14284323383282
 31
0.0
 73
     2
  0
TEXT
  5
72EE
  8
0
 10
14.997089773706341
 20
298.14284323383282
 30
0.0
 40
2.0
  1
36
 72
     2
 11
18.330423107039682
 21
299.14284323383282
 31
0.0
 73
     2
  0
LINE
  5
72EF
  8
0
 10
10.0
 20
309.14284323383282
 30
0.0
 11
13.0
 21
309.14284323383282
 31
0.0
  0
LINE
  5
72F0
  8
0
 10
10.0
 20
313.14284323383282
 30
0.0
 11
11.0
 21
313.14284323383282
 31
0.0
  0
LINE
  5
72F1
  8
0
 10
10.0
 20
308.14284323383282
 30
0.0
 11
11.0
 21
308.14284323383282
 31
0.0
  0
LINE
  5
72F2
  8
0
 10
10.0
 20
307.14284323383282
 30
0.0
 11
11.0
 21
307.14284323383282
 31
0.0
  0
LINE
  5
72F3
  8
0
 10
10.0
 20
306.14284323383282
 30
0.0
 11
11.0
 21
306.14284323383282
 31
0.0
  0
LINE
  5
72F4
  8
0
 10
10.0
 20
305.14284323383282
 30
0.0
 11
11.0
 21
305.14284323383282
 31
0.0
  0
LINE
  5
72F5
  8
0
 10
10.0
 20
310.14284323383282
 30
0.0
 11
11.0
 21
310.14284323383282
 31
0.0
  0
LINE
  5
72F6
  8
0
 10
10.0
 20
311.14284323383282
 30
0.0
 11
11.0
 21
311.14284323383282
 31
0.0
  0
LINE
  5
72F7
  8
0
 10
10.0
 20
312.14284323383282
 30
0.0
 11
11.0
 21
312.14284323383282
 31
0.0
  0
LINE
  5
72F8
  8
0
 10
10.0
 20
319.14284323383282
 30
0.0
 11
13.0
 21
319.14284323383282
 31
0.0
  0
LINE
  5
72F9
  8
0
 10
10.0
 20
318.14284323383282
 30
0.0
 11
11.0
 21
318.14284323383282
 31
0.0
  0
LINE
  5
72FA
  8
0
 10
10.0
 20
317.14284323383282
 30
0.0
 11
11.0
 21
317.14284323383282
 31
0.0
  0
LINE
  5
72FB
  8
0
 10
10.0
 20
316.14284323383282
 30
0.0
 11
11.0
 21
316.14284323383282
 31
0.0
  0
LINE
  5
72FC
  8
0
 10
10.0
 20
315.14284323383282
 30
0.0
 11
11.0
 21
315.14284323383282
 31
0.0
  0
LINE
  5
72FD
  8
0
 10
10.0
 20
320.14284323383282
 30
0.0
 11
11.0
 21
320.14284323383282
 31
0.0
  0
LINE
  5
72FE
  8
0
 10
10.0
 20
321.14284323383282
 30
0.0
 11
11.0
 21
321.14284323383282
 31
0.0
  0
LINE
  5
72FF
  8
0
 10
10.0
 20
314.14284323383282
 30
0.0
 11
12.0
 21
314.14284323383282
 31
0.0
  0
TEXT
  5
7300
  8
0
 10
14.997089773706341
 20
308.14284323383282
 30
0.0
 40
2.0
  1
35
 72
     2
 11
18.330423107039682
 21
309.14284323383282
 31
0.0
 73
     2
  0
TEXT
  5
7301
  8
0
 10
14.99708977370635
 20
318.14284323383282
 30
0.0
 40
2.0
  1
34
 72
     2
 11
18.330423107039682
 21
319.14284323383282
 31
0.0
 73
     2
  0
TEXT
  5
7302
  8
0
 10
14.997089773706341
 20
338.14284323383282
 30
0.0
 40
2.0
  1
32
 72
     2
 11
18.330423107039682
 21
339.14284323383282
 31
0.0
 73
     2
  0
LINE
  5
7303
  8
0
 10
10.0
 20
329.14284323383282
 30
0.0
 11
13.0
 21
329.14284323383282
 31
0.0
  0
LINE
  5
7304
  8
0
 10
10.0
 20
330.14284323383282
 30
0.0
 11
11.0
 21
330.14284323383282
 31
0.0
  0
LINE
  5
7305
  8
0
 10
10.0
 20
325.14284323383282
 30
0.0
 11
11.0
 21
325.14284323383282
 31
0.0
  0
LINE
  5
7306
  8
0
 10
10.0
 20
322.14284323383282
 30
0.0
 11
11.0
 21
322.14284323383282
 31
0.0
  0
LINE
  5
7307
  8
0
 10
10.0
 20
323.14284323383282
 30
0.0
 11
11.0
 21
323.14284323383282
 31
0.0
  0
LINE
  5
7308
  8
0
 10
10.0
 20
328.14284323383282
 30
0.0
 11
11.0
 21
328.14284323383282
 31
0.0
  0
LINE
  5
7309
  8
0
 10
10.0
 20
327.14284323383282
 30
0.0
 11
11.0
 21
327.14284323383282
 31
0.0
  0
LINE
  5
730A
  8
0
 10
10.0
 20
326.14284323383282
 30
0.0
 11
11.0
 21
326.14284323383282
 31
0.0
  0
LINE
  5
730B
  8
0
 10
10.0
 20
324.14284323383282
 30
0.0
 11
12.0
 21
324.14284323383282
 31
0.0
  0
LINE
  5
730C
  8
0
 10
10.0
 20
339.14284323383282
 30
0.0
 11
13.0
 21
339.14284323383282
 31
0.0
  0
LINE
  5
730D
  8
0
 10
10.0
 20
338.14284323383282
 30
0.0
 11
11.0
 21
338.14284323383282
 31
0.0
  0
LINE
  5
730E
  8
0
 10
10.0
 20
336.14284323383282
 30
0.0
 11
11.0
 21
336.14284323383282
 31
0.0
  0
LINE
  5
730F
  8
0
 10
10.0
 20
335.14284323383282
 30
0.0
 11
11.0
 21
335.14284323383282
 31
0.0
  0
LINE
  5
7310
  8
0
 10
10.0
 20
331.14284323383282
 30
0.0
 11
11.0
 21
331.14284323383282
 31
0.0
  0
LINE
  5
7311
  8
0
 10
10.0
 20
332.14284323383282
 30
0.0
 11
11.0
 21
332.14284323383282
 31
0.0
  0
LINE
  5
7312
  8
0
 10
10.0
 20
333.14284323383282
 30
0.0
 11
11.0
 21
333.14284323383282
 31
0.0
  0
LINE
  5
7313
  8
0
 10
10.0
 20
337.14284323383282
 30
0.0
 11
11.0
 21
337.14284323383282
 31
0.0
  0
LINE
  5
7314
  8
0
 10
10.0
 20
334.14284323383282
 30
0.0
 11
12.0
 21
334.14284323383282
 31
0.0
  0
TEXT
  5
7315
  8
0
 10
14.997089773706341
 20
328.14284323383282
 30
0.0
 40
2.0
  1
33
 72
     2
 11
18.330423107039682
 21
329.14284323383282
 31
0.0
 73
     2
  0
LINE
  5
7316
  8
0
 10
10.0
 20
346.14284323383282
 30
0.0
 11
11.0
 21
346.14284323383282
 31
0.0
  0
LINE
  5
7317
  8
0
 10
10.0
 20
347.14284323383282
 30
0.0
 11
11.0
 21
347.14284323383282
 31
0.0
  0
LINE
  5
7318
  8
0
 10
10.0
 20
345.14284323383282
 30
0.0
 11
11.0
 21
345.14284323383282
 31
0.0
  0
LINE
  5
7319
  8
0
 10
10.0
 20
340.14284323383282
 30
0.0
 11
11.0
 21
340.14284323383282
 31
0.0
  0
LINE
  5
731A
  8
0
 10
10.0
 20
341.14284323383282
 30
0.0
 11
11.0
 21
341.14284323383282
 31
0.0
  0
LINE
  5
731B
  8
0
 10
10.0
 20
342.14284323383282
 30
0.0
 11
11.0
 21
342.14284323383282
 31
0.0
  0
LINE
  5
731C
  8
0
 10
10.0
 20
343.14284323383282
 30
0.0
 11
11.0
 21
343.14284323383282
 31
0.0
  0
LINE
  5
731D
  8
0
 10
10.0
 20
344.14284323383282
 30
0.0
 11
12.0
 21
344.14284323383282
 31
0.0
  0
LINE
  5
731E
  8
0
 10
10.0
 20
349.14284323383282
 30
0.0
 11
13.0
 21
349.14284323383282
 31
0.0
  0
LINE
  5
731F
  8
0
 10
10.0
 20
355.14284323383282
 30
0.0
 11
11.0
 21
355.14284323383282
 31
0.0
  0
LINE
  5
7320
  8
0
 10
10.0
 20
356.14284323383282
 30
0.0
 11
11.0
 21
356.14284323383282
 31
0.0
  0
LINE
  5
7321
  8
0
 10
10.0
 20
354.14284323383282
 30
0.0
 11
12.0
 21
354.14284323383282
 31
0.0
  0
LINE
  5
7322
  8
0
 10
10.0
 20
348.14284323383282
 30
0.0
 11
11.0
 21
348.14284323383282
 31
0.0
  0
LINE
  5
7323
  8
0
 10
10.0
 20
353.14284323383282
 30
0.0
 11
11.0
 21
353.14284323383282
 31
0.0
  0
LINE
  5
7324
  8
0
 10
10.0
 20
352.14284323383282
 30
0.0
 11
11.0
 21
352.14284323383282
 31
0.0
  0
LINE
  5
7325
  8
0
 10
10.0
 20
351.14284323383282
 30
0.0
 11
11.0
 21
351.14284323383282
 31
0.0
  0
LINE
  5
7326
  8
0
 10
10.0
 20
350.14284323383282
 30
0.0
 11
11.0
 21
350.14284323383282
 31
0.0
  0
TEXT
  5
7327
  8
0
 10
15.66375644037301
 20
348.14284323383282
 30
0.0
 40
2.0
  1
31
 72
     2
 11
18.330423107039682
 21
349.14284323383282
 31
0.0
 73
     2
  0
LINE
  5
7328
  8
0
 10
10.0
 20
357.14284323383282
 30
0.0
 11
11.0
 21
357.14284323383282
 31
0.0
  0
LINE
  5
7329
  8
0
 10
10.0
 20
358.14284323383282
 30
0.0
 11
11.0
 21
358.14284323383282
 31
0.0
  0
LINE
  5
732A
  8
0
 10
10.0
 20
163.14284323383259
 30
0.0
 11
11.0
 21
163.14284323383259
 31
0.0
  0
LINE
  5
732B
  8
0
 10
10.0
 20
162.14284323383259
 30
0.0
 11
11.0
 21
162.14284323383259
 31
0.0
  0
LINE
  5
732C
  8
0
 10
10.0
 20
161.14284323383259
 30
0.0
 11
11.0
 21
161.14284323383259
 31
0.0
  0
LINE
  5
732D
  8
0
 10
10.0
 20
164.14284323383259
 30
0.0
 11
12.0
 21
164.14284323383259
 31
0.0
  0
LINE
  5
732E
  8
0
 10
10.0
 20
160.14284323383259
 30
0.0
 11
11.0
 21
160.14284323383259
 31
0.0
  0
TEXT
  5
732F
  8
0
 10
15.33042310703968
 20
159.33822515770899
 30
0.0
 40
2.0
  1
50
 72
     2
 11
18.330423107039682
 21
160.33822515770899
 31
0.0
 73
     2
  0
LINE
  5
7330
  8
0
 10
10.0
 20
169.14284323383259
 30
0.0
 11
13.0
 21
169.14284323383259
 31
0.0
  0
LINE
  5
7331
  8
0
 10
10.0
 20
171.14284323383259
 30
0.0
 11
11.0
 21
171.14284323383259
 31
0.0
  0
LINE
  5
7332
  8
0
 10
10.0
 20
170.14284323383271
 30
0.0
 11
11.0
 21
170.14284323383271
 31
0.0
  0
LINE
  5
7333
  8
0
 10
10.0
 20
173.14284323383259
 30
0.0
 11
11.0
 21
173.14284323383259
 31
0.0
  0
LINE
  5
7334
  8
0
 10
10.0
 20
172.14284323383259
 30
0.0
 11
11.0
 21
172.14284323383259
 31
0.0
  0
LINE
  5
7335
  8
0
 10
10.0
 20
165.14284323383259
 30
0.0
 11
11.0
 21
165.14284323383259
 31
0.0
  0
LINE
  5
7336
  8
0
 10
10.0
 20
166.14284323383259
 30
0.0
 11
11.0
 21
166.14284323383259
 31
0.0
  0
LINE
  5
7337
  8
0
 10
10.0
 20
167.14284323383259
 30
0.0
 11
11.0
 21
167.14284323383259
 31
0.0
  0
LINE
  5
7338
  8
0
 10
10.0
 20
168.14284323383259
 30
0.0
 11
11.0
 21
168.14284323383259
 31
0.0
  0
LINE
  5
7339
  8
0
 10
10.0
 20
179.14284323383259
 30
0.0
 11
13.0
 21
179.14284323383259
 31
0.0
  0
LINE
  5
733A
  8
0
 10
10.0
 20
180.14284323383259
 30
0.0
 11
11.0
 21
180.14284323383259
 31
0.0
  0
LINE
  5
733B
  8
0
 10
10.0
 20
182.14284323383259
 30
0.0
 11
11.0
 21
182.14284323383259
 31
0.0
  0
LINE
  5
733C
  8
0
 10
10.0
 20
181.14284323383259
 30
0.0
 11
11.0
 21
181.14284323383259
 31
0.0
  0
LINE
  5
733D
  8
0
 10
10.0
 20
174.14284323383259
 30
0.0
 11
12.0
 21
174.14284323383259
 31
0.0
  0
LINE
  5
733E
  8
0
 10
10.0
 20
175.14284323383259
 30
0.0
 11
11.0
 21
175.14284323383259
 31
0.0
  0
LINE
  5
733F
  8
0
 10
10.0
 20
176.14284323383259
 30
0.0
 11
11.0
 21
176.14284323383259
 31
0.0
  0
LINE
  5
7340
  8
0
 10
10.0
 20
177.14284323383259
 30
0.0
 11
11.0
 21
177.14284323383259
 31
0.0
  0
LINE
  5
7341
  8
0
 10
10.0
 20
178.14284323383259
 30
0.0
 11
11.0
 21
178.14284323383259
 31
0.0
  0
TEXT
  5
7342
  8
0
 10
14.997089773706341
 20
168.14284323383259
 30
0.0
 40
2.0
  1
49
 72
     2
 11
18.330423107039682
 21
169.14284323383259
 31
0.0
 73
     2
  0
TEXT
  5
7343
  8
0
 10
14.997089773706341
 20
178.14284323383259
 30
0.0
 40
2.0
  1
48
 72
     2
 11
18.330423107039682
 21
179.14284323383259
 31
0.0
 73
     2
  0
TEXT
  5
7344
  8
0
 10
14.997089773706341
 20
198.14284323383259
 30
0.0
 40
2.0
  1
46
 72
     2
 11
18.330423107039682
 21
199.14284323383259
 31
0.0
 73
     2
  0
LINE
  5
7345
  8
0
 10
10.0
 20
189.14284323383259
 30
0.0
 11
13.0
 21
189.14284323383259
 31
0.0
  0
LINE
  5
7346
  8
0
 10
10.0
 20
184.14284323383259
 30
0.0
 11
12.0
 21
184.14284323383259
 31
0.0
  0
LINE
  5
7347
  8
0
 10
10.0
 20
183.14284323383259
 30
0.0
 11
11.0
 21
183.14284323383259
 31
0.0
  0
LINE
  5
7348
  8
0
 10
10.0
 20
185.14284323383259
 30
0.0
 11
11.0
 21
185.14284323383259
 31
0.0
  0
LINE
  5
7349
  8
0
 10
10.0
 20
186.14284323383259
 30
0.0
 11
11.0
 21
186.14284323383259
 31
0.0
  0
LINE
  5
734A
  8
0
 10
10.0
 20
187.14284323383259
 30
0.0
 11
11.0
 21
187.14284323383259
 31
0.0
  0
LINE
  5
734B
  8
0
 10
10.0
 20
188.14284323383259
 30
0.0
 11
11.0
 21
188.14284323383259
 31
0.0
  0
LINE
  5
734C
  8
0
 10
10.0
 20
191.14284323383259
 30
0.0
 11
11.0
 21
191.14284323383259
 31
0.0
  0
LINE
  5
734D
  8
0
 10
10.0
 20
190.14284323383259
 30
0.0
 11
11.0
 21
190.14284323383259
 31
0.0
  0
LINE
  5
734E
  8
0
 10
10.0
 20
199.14284323383259
 30
0.0
 11
13.0
 21
199.14284323383259
 31
0.0
  0
LINE
  5
734F
  8
0
 10
10.0
 20
196.14284323383259
 30
0.0
 11
11.0
 21
196.14284323383259
 31
0.0
  0
LINE
  5
7350
  8
0
 10
10.0
 20
197.14284323383259
 30
0.0
 11
11.0
 21
197.14284323383259
 31
0.0
  0
LINE
  5
7351
  8
0
 10
10.0
 20
198.14284323383259
 30
0.0
 11
11.0
 21
198.14284323383259
 31
0.0
  0
LINE
  5
7352
  8
0
 10
10.0
 20
194.14284323383271
 30
0.0
 11
12.0
 21
194.14284323383271
 31
0.0
  0
LINE
  5
7353
  8
0
 10
10.0
 20
195.14284323383271
 30
0.0
 11
11.0
 21
195.14284323383271
 31
0.0
  0
LINE
  5
7354
  8
0
 10
10.0
 20
193.14284323383259
 30
0.0
 11
11.0
 21
193.14284323383259
 31
0.0
  0
LINE
  5
7355
  8
0
 10
10.0
 20
192.14284323383259
 30
0.0
 11
11.0
 21
192.14284323383259
 31
0.0
  0
TEXT
  5
7356
  8
0
 10
14.99708977370635
 20
188.14284323383259
 30
0.0
 40
2.0
  1
47
 72
     2
 11
18.330423107039682
 21
189.14284323383259
 31
0.0
 73
     2
  0
LINE
  5
7357
  8
0
 10
10.0
 20
205.14284323383259
 30
0.0
 11
11.0
 21
205.14284323383259
 31
0.0
  0
LINE
  5
7358
  8
0
 10
10.0
 20
206.14284323383271
 30
0.0
 11
11.0
 21
206.14284323383271
 31
0.0
  0
LINE
  5
7359
  8
0
 10
10.0
 20
207.14284323383259
 30
0.0
 11
11.0
 21
207.14284323383259
 31
0.0
  0
LINE
  5
735A
  8
0
 10
10.0
 20
208.14284323383271
 30
0.0
 11
11.0
 21
208.14284323383271
 31
0.0
  0
LINE
  5
735B
  8
0
 10
10.0
 20
204.14284323383271
 30
0.0
 11
12.0
 21
204.14284323383271
 31
0.0
  0
LINE
  5
735C
  8
0
 10
10.0
 20
203.14284323383259
 30
0.0
 11
11.0
 21
203.14284323383259
 31
0.0
  0
LINE
  5
735D
  8
0
 10
10.0
 20
202.14284323383271
 30
0.0
 11
11.0
 21
202.14284323383271
 31
0.0
  0
LINE
  5
735E
  8
0
 10
10.0
 20
201.14284323383259
 30
0.0
 11
11.0
 21
201.14284323383259
 31
0.0
  0
LINE
  5
735F
  8
0
 10
10.0
 20
200.14284323383271
 30
0.0
 11
11.0
 21
200.14284323383271
 31
0.0
  0
LINE
  5
7360
  8
0
 10
10.0
 20
209.14284323383259
 30
0.0
 11
13.0
 21
209.14284323383259
 31
0.0
  0
LINE
  5
7361
  8
0
 10
10.0
 20
214.14284323383259
 30
0.0
 11
12.0
 21
214.14284323383259
 31
0.0
  0
LINE
  5
7362
  8
0
 10
10.0
 20
215.14284323383259
 30
0.0
 11
11.0
 21
215.14284323383259
 31
0.0
  0
LINE
  5
7363
  8
0
 10
10.0
 20
216.14284323383259
 30
0.0
 11
11.0
 21
216.14284323383259
 31
0.0
  0
LINE
  5
7364
  8
0
 10
10.0
 20
217.14284323383259
 30
0.0
 11
11.0
 21
217.14284323383259
 31
0.0
  0
LINE
  5
7365
  8
0
 10
10.0
 20
212.14284323383259
 30
0.0
 11
11.0
 21
212.14284323383259
 31
0.0
  0
LINE
  5
7366
  8
0
 10
10.0
 20
211.14284323383259
 30
0.0
 11
11.0
 21
211.14284323383259
 31
0.0
  0
LINE
  5
7367
  8
0
 10
10.0
 20
210.14284323383259
 30
0.0
 11
11.0
 21
210.14284323383259
 31
0.0
  0
LINE
  5
7368
  8
0
 10
10.0
 20
213.14284323383259
 30
0.0
 11
11.0
 21
213.14284323383259
 31
0.0
  0
TEXT
  5
7369
  8
0
 10
14.997089773706341
 20
208.14284323383259
 30
0.0
 40
2.0
  1
45
 72
     2
 11
18.330423107039682
 21
209.14284323383259
 31
0.0
 73
     2
  0
LINE
  5
736A
  8
0
 10
10.0
 20
219.14284323383259
 30
0.0
 11
13.0
 21
219.14284323383259
 31
0.0
  0
LINE
  5
736B
  8
0
 10
10.0
 20
224.14284323383259
 30
0.0
 11
12.0
 21
224.14284323383259
 31
0.0
  0
LINE
  5
736C
  8
0
 10
10.0
 20
223.14284323383271
 30
0.0
 11
11.0
 21
223.14284323383271
 31
0.0
  0
LINE
  5
736D
  8
0
 10
10.0
 20
222.14284323383259
 30
0.0
 11
11.0
 21
222.14284323383259
 31
0.0
  0
LINE
  5
736E
  8
0
 10
10.0
 20
225.14284323383271
 30
0.0
 11
11.0
 21
225.14284323383271
 31
0.0
  0
LINE
  5
736F
  8
0
 10
10.0
 20
221.14284323383259
 30
0.0
 11
11.0
 21
221.14284323383259
 31
0.0
  0
LINE
  5
7370
  8
0
 10
10.0
 20
220.14284323383259
 30
0.0
 11
11.0
 21
220.14284323383259
 31
0.0
  0
LINE
  5
7371
  8
0
 10
10.0
 20
218.14284323383259
 30
0.0
 11
11.0
 21
218.14284323383259
 31
0.0
  0
LINE
  5
7372
  8
0
 10
10.0
 20
229.14284323383271
 30
0.0
 11
13.0
 21
229.14284323383271
 31
0.0
  0
LINE
  5
7373
  8
0
 10
10.0
 20
234.14284323383259
 30
0.0
 11
12.0
 21
234.14284323383259
 31
0.0
  0
LINE
  5
7374
  8
0
 10
10.0
 20
233.14284323383271
 30
0.0
 11
11.0
 21
233.14284323383271
 31
0.0
  0
LINE
  5
7375
  8
0
 10
10.0
 20
232.14284323383259
 30
0.0
 11
11.0
 21
232.14284323383259
 31
0.0
  0
LINE
  5
7376
  8
0
 10
10.0
 20
231.14284323383271
 30
0.0
 11
11.0
 21
231.14284323383271
 31
0.0
  0
LINE
  5
7377
  8
0
 10
10.0
 20
226.14284323383259
 30
0.0
 11
11.0
 21
226.14284323383259
 31
0.0
  0
LINE
  5
7378
  8
0
 10
10.0
 20
227.14284323383271
 30
0.0
 11
11.0
 21
227.14284323383271
 31
0.0
  0
LINE
  5
7379
  8
0
 10
10.0
 20
228.14284323383259
 30
0.0
 11
11.0
 21
228.14284323383259
 31
0.0
  0
LINE
  5
737A
  8
0
 10
10.0
 20
230.14284323383259
 30
0.0
 11
11.0
 21
230.14284323383259
 31
0.0
  0
TEXT
  5
737B
  8
0
 10
14.99708977370635
 20
218.14284323383259
 30
0.0
 40
2.0
  1
44
 72
     2
 11
18.330423107039682
 21
219.14284323383259
 31
0.0
 73
     2
  0
TEXT
  5
737C
  8
0
 10
14.997089773706341
 20
228.14284323383271
 30
0.0
 40
2.0
  1
43
 72
     2
 11
18.330423107039682
 21
229.14284323383271
 31
0.0
 73
     2
  0
LINE
  5
737D
  8
0
 10
10.0
 20
239.14284323383259
 30
0.0
 11
13.0
 21
239.14284323383259
 31
0.0
  0
LINE
  5
737E
  8
0
 10
10.0
 20
243.14284323383259
 30
0.0
 11
11.0
 21
243.14284323383259
 31
0.0
  0
LINE
  5
737F
  8
0
 10
10.0
 20
242.14284323383259
 30
0.0
 11
11.0
 21
242.14284323383259
 31
0.0
  0
LINE
  5
7380
  8
0
 10
10.0
 20
241.14284323383259
 30
0.0
 11
11.0
 21
241.14284323383259
 31
0.0
  0
LINE
  5
7381
  8
0
 10
10.0
 20
240.14284323383259
 30
0.0
 11
11.0
 21
240.14284323383259
 31
0.0
  0
LINE
  5
7382
  8
0
 10
10.0
 20
237.14284323383259
 30
0.0
 11
11.0
 21
237.14284323383259
 31
0.0
  0
LINE
  5
7383
  8
0
 10
10.0
 20
235.14284323383271
 30
0.0
 11
11.0
 21
235.14284323383271
 31
0.0
  0
LINE
  5
7384
  8
0
 10
10.0
 20
236.14284323383259
 30
0.0
 11
11.0
 21
236.14284323383259
 31
0.0
  0
LINE
  5
7385
  8
0
 10
10.0
 20
238.14284323383259
 30
0.0
 11
11.0
 21
238.14284323383259
 31
0.0
  0
LINE
  5
7386
  8
0
 10
10.0
 20
249.14284323383259
 30
0.0
 11
13.0
 21
249.14284323383259
 31
0.0
  0
LINE
  5
7387
  8
0
 10
10.0
 20
250.14284323383271
 30
0.0
 11
11.0
 21
250.14284323383271
 31
0.0
  0
LINE
  5
7388
  8
0
 10
10.0
 20
251.14284323383259
 30
0.0
 11
11.0
 21
251.14284323383259
 31
0.0
  0
LINE
  5
7389
  8
0
 10
10.0
 20
252.14284323383271
 30
0.0
 11
11.0
 21
252.14284323383271
 31
0.0
  0
LINE
  5
738A
  8
0
 10
10.0
 20
248.14284323383271
 30
0.0
 11
11.0
 21
248.14284323383271
 31
0.0
  0
LINE
  5
738B
  8
0
 10
10.0
 20
244.14284323383259
 30
0.0
 11
12.0
 21
244.14284323383259
 31
0.0
  0
LINE
  5
738C
  8
0
 10
10.0
 20
245.14284323383259
 30
0.0
 11
11.0
 21
245.14284323383259
 31
0.0
  0
LINE
  5
738D
  8
0
 10
10.0
 20
247.14284323383259
 30
0.0
 11
11.0
 21
247.14284323383259
 31
0.0
  0
LINE
  5
738E
  8
0
 10
10.0
 20
246.14284323383259
 30
0.0
 11
11.0
 21
246.14284323383259
 31
0.0
  0
TEXT
  5
738F
  8
0
 10
14.997089773706341
 20
238.14284323383259
 30
0.0
 40
2.0
  1
42
 72
     2
 11
18.330423107039682
 21
239.14284323383259
 31
0.0
 73
     2
  0
TEXT
  5
7390
  8
0
 10
15.66375644037301
 20
248.14284323383259
 30
0.0
 40
2.0
  1
41
 72
     2
 11
18.330423107039682
 21
249.14284323383259
 31
0.0
 73
     2
  0
LINE
  5
7391
  8
0
 10
10.0
 20
258.14284323383271
 30
0.0
 11
11.0
 21
258.14284323383271
 31
0.0
  0
LINE
  5
7392
  8
0
 10
10.0
 20
257.14284323383271
 30
0.0
 11
11.0
 21
257.14284323383271
 31
0.0
  0
LINE
  5
7393
  8
0
 10
10.0
 20
253.14284323383259
 30
0.0
 11
11.0
 21
253.14284323383259
 31
0.0
  0
LINE
  5
7394
  8
0
 10
10.0
 20
254.14284323383271
 30
0.0
 11
12.0
 21
254.14284323383271
 31
0.0
  0
LINE
  5
7395
  8
0
 10
10.0
 20
256.14284323383271
 30
0.0
 11
11.0
 21
256.14284323383271
 31
0.0
  0
LINE
  5
7396
  8
0
 10
10.0
 20
255.14284323383259
 30
0.0
 11
11.0
 21
255.14284323383259
 31
0.0
  0
LINE
  5
7397
  8
0
 10
288.0
 20
160.14284323383259
 30
0.0
 11
287.0
 21
160.14284323383259
 31
0.0
  0
LINE
  5
7398
  8
0
 10
288.0
 20
169.14284323383259
 30
0.0
 11
285.0
 21
169.14284323383259
 31
0.0
  0
LINE
  5
7399
  8
0
 10
288.0
 20
168.14284323383259
 30
0.0
 11
287.0
 21
168.14284323383259
 31
0.0
  0
LINE
  5
739A
  8
0
 10
288.0
 20
167.14284323383259
 30
0.0
 11
287.0
 21
167.14284323383259
 31
0.0
  0
LINE
  5
739B
  8
0
 10
288.0
 20
166.14284323383259
 30
0.0
 11
287.0
 21
166.14284323383259
 31
0.0
  0
LINE
  5
739C
  8
0
 10
288.0
 20
165.14284323383259
 30
0.0
 11
287.0
 21
165.14284323383259
 31
0.0
  0
LINE
  5
739D
  8
0
 10
288.0
 20
164.14284323383259
 30
0.0
 11
286.0
 21
164.14284323383259
 31
0.0
  0
LINE
  5
739E
  8
0
 10
288.0
 20
161.14284323383259
 30
0.0
 11
287.0
 21
161.14284323383259
 31
0.0
  0
LINE
  5
739F
  8
0
 10
288.0
 20
162.14284323383259
 30
0.0
 11
287.0
 21
162.14284323383259
 31
0.0
  0
LINE
  5
73A0
  8
0
 10
288.0
 20
163.14284323383259
 30
0.0
 11
287.0
 21
163.14284323383259
 31
0.0
  0
LINE
  5
73A1
  8
0
 10
288.0
 20
177.14284323383259
 30
0.0
 11
287.0
 21
177.14284323383259
 31
0.0
  0
LINE
  5
73A2
  8
0
 10
288.0
 20
176.14284323383259
 30
0.0
 11
287.0
 21
176.14284323383259
 31
0.0
  0
LINE
  5
73A3
  8
0
 10
288.0
 20
175.14284323383259
 30
0.0
 11
287.0
 21
175.14284323383259
 31
0.0
  0
LINE
  5
73A4
  8
0
 10
288.0
 20
174.14284323383259
 30
0.0
 11
286.0
 21
174.14284323383259
 31
0.0
  0
LINE
  5
73A5
  8
0
 10
288.0
 20
172.14284323383259
 30
0.0
 11
287.0
 21
172.14284323383259
 31
0.0
  0
LINE
  5
73A6
  8
0
 10
288.0
 20
173.14284323383259
 30
0.0
 11
287.0
 21
173.14284323383259
 31
0.0
  0
LINE
  5
73A7
  8
0
 10
288.0
 20
170.14284323383271
 30
0.0
 11
287.0
 21
170.14284323383271
 31
0.0
  0
LINE
  5
73A8
  8
0
 10
288.0
 20
171.14284323383259
 30
0.0
 11
287.0
 21
171.14284323383259
 31
0.0
  0
LINE
  5
73A9
  8
0
 10
288.0
 20
179.14284323383259
 30
0.0
 11
285.0
 21
179.14284323383259
 31
0.0
  0
LINE
  5
73AA
  8
0
 10
288.0
 20
186.14284323383259
 30
0.0
 11
287.0
 21
186.14284323383259
 31
0.0
  0
LINE
  5
73AB
  8
0
 10
288.0
 20
185.14284323383259
 30
0.0
 11
287.0
 21
185.14284323383259
 31
0.0
  0
LINE
  5
73AC
  8
0
 10
288.0
 20
183.14284323383259
 30
0.0
 11
287.0
 21
183.14284323383259
 31
0.0
  0
LINE
  5
73AD
  8
0
 10
288.0
 20
184.14284323383259
 30
0.0
 11
286.0
 21
184.14284323383259
 31
0.0
  0
LINE
  5
73AE
  8
0
 10
288.0
 20
178.14284323383259
 30
0.0
 11
287.0
 21
178.14284323383259
 31
0.0
  0
LINE
  5
73AF
  8
0
 10
288.0
 20
181.14284323383259
 30
0.0
 11
287.0
 21
181.14284323383259
 31
0.0
  0
LINE
  5
73B0
  8
0
 10
288.0
 20
182.14284323383259
 30
0.0
 11
287.0
 21
182.14284323383259
 31
0.0
  0
LINE
  5
73B1
  8
0
 10
288.0
 20
180.14284323383259
 30
0.0
 11
287.0
 21
180.14284323383259
 31
0.0
  0
LINE
  5
73B2
  8
0
 10
288.0
 20
189.14284323383259
 30
0.0
 11
285.0
 21
189.14284323383259
 31
0.0
  0
LINE
  5
73B3
  8
0
 10
288.0
 20
192.14284323383259
 30
0.0
 11
287.0
 21
192.14284323383259
 31
0.0
  0
LINE
  5
73B4
  8
0
 10
288.0
 20
193.14284323383259
 30
0.0
 11
287.0
 21
193.14284323383259
 31
0.0
  0
LINE
  5
73B5
  8
0
 10
288.0
 20
195.14284323383271
 30
0.0
 11
287.0
 21
195.14284323383271
 31
0.0
  0
LINE
  5
73B6
  8
0
 10
288.0
 20
194.14284323383271
 30
0.0
 11
286.0
 21
194.14284323383271
 31
0.0
  0
LINE
  5
73B7
  8
0
 10
288.0
 20
190.14284323383259
 30
0.0
 11
287.0
 21
190.14284323383259
 31
0.0
  0
LINE
  5
73B8
  8
0
 10
288.0
 20
191.14284323383259
 30
0.0
 11
287.0
 21
191.14284323383259
 31
0.0
  0
LINE
  5
73B9
  8
0
 10
288.0
 20
188.14284323383259
 30
0.0
 11
287.0
 21
188.14284323383259
 31
0.0
  0
LINE
  5
73BA
  8
0
 10
288.0
 20
187.14284323383259
 30
0.0
 11
287.0
 21
187.14284323383259
 31
0.0
  0
LINE
  5
73BB
  8
0
 10
288.0
 20
199.14284323383259
 30
0.0
 11
285.0
 21
199.14284323383259
 31
0.0
  0
LINE
  5
73BC
  8
0
 10
288.0
 20
200.14284323383271
 30
0.0
 11
287.0
 21
200.14284323383271
 31
0.0
  0
LINE
  5
73BD
  8
0
 10
288.0
 20
201.14284323383259
 30
0.0
 11
287.0
 21
201.14284323383259
 31
0.0
  0
LINE
  5
73BE
  8
0
 10
288.0
 20
202.14284323383271
 30
0.0
 11
287.0
 21
202.14284323383271
 31
0.0
  0
LINE
  5
73BF
  8
0
 10
288.0
 20
203.14284323383259
 30
0.0
 11
287.0
 21
203.14284323383259
 31
0.0
  0
LINE
  5
73C0
  8
0
 10
288.0
 20
198.14284323383259
 30
0.0
 11
287.0
 21
198.14284323383259
 31
0.0
  0
LINE
  5
73C1
  8
0
 10
288.0
 20
197.14284323383259
 30
0.0
 11
287.0
 21
197.14284323383259
 31
0.0
  0
LINE
  5
73C2
  8
0
 10
288.0
 20
196.14284323383259
 30
0.0
 11
287.0
 21
196.14284323383259
 31
0.0
  0
LINE
  5
73C3
  8
0
 10
288.0
 20
209.14284323383259
 30
0.0
 11
285.0
 21
209.14284323383259
 31
0.0
  0
LINE
  5
73C4
  8
0
 10
288.0
 20
210.14284323383259
 30
0.0
 11
287.0
 21
210.14284323383259
 31
0.0
  0
LINE
  5
73C5
  8
0
 10
288.0
 20
211.14284323383259
 30
0.0
 11
287.0
 21
211.14284323383259
 31
0.0
  0
LINE
  5
73C6
  8
0
 10
288.0
 20
212.14284323383259
 30
0.0
 11
287.0
 21
212.14284323383259
 31
0.0
  0
LINE
  5
73C7
  8
0
 10
288.0
 20
204.14284323383271
 30
0.0
 11
286.0
 21
204.14284323383271
 31
0.0
  0
LINE
  5
73C8
  8
0
 10
288.0
 20
208.14284323383271
 30
0.0
 11
287.0
 21
208.14284323383271
 31
0.0
  0
LINE
  5
73C9
  8
0
 10
288.0
 20
207.14284323383259
 30
0.0
 11
287.0
 21
207.14284323383259
 31
0.0
  0
LINE
  5
73CA
  8
0
 10
288.0
 20
206.14284323383271
 30
0.0
 11
287.0
 21
206.14284323383271
 31
0.0
  0
LINE
  5
73CB
  8
0
 10
288.0
 20
205.14284323383259
 30
0.0
 11
287.0
 21
205.14284323383259
 31
0.0
  0
LINE
  5
73CC
  8
0
 10
288.0
 20
219.14284323383259
 30
0.0
 11
285.0
 21
219.14284323383259
 31
0.0
  0
LINE
  5
73CD
  8
0
 10
288.0
 20
218.14284323383259
 30
0.0
 11
287.0
 21
218.14284323383259
 31
0.0
  0
LINE
  5
73CE
  8
0
 10
288.0
 20
220.14284323383259
 30
0.0
 11
287.0
 21
220.14284323383259
 31
0.0
  0
LINE
  5
73CF
  8
0
 10
288.0
 20
221.14284323383259
 30
0.0
 11
287.0
 21
221.14284323383259
 31
0.0
  0
LINE
  5
73D0
  8
0
 10
288.0
 20
213.14284323383259
 30
0.0
 11
287.0
 21
213.14284323383259
 31
0.0
  0
LINE
  5
73D1
  8
0
 10
288.0
 20
217.14284323383259
 30
0.0
 11
287.0
 21
217.14284323383259
 31
0.0
  0
LINE
  5
73D2
  8
0
 10
288.0
 20
216.14284323383259
 30
0.0
 11
287.0
 21
216.14284323383259
 31
0.0
  0
LINE
  5
73D3
  8
0
 10
288.0
 20
215.14284323383259
 30
0.0
 11
287.0
 21
215.14284323383259
 31
0.0
  0
LINE
  5
73D4
  8
0
 10
288.0
 20
214.14284323383259
 30
0.0
 11
286.0
 21
214.14284323383259
 31
0.0
  0
LINE
  5
73D5
  8
0
 10
288.0
 20
229.14284323383271
 30
0.0
 11
285.0
 21
229.14284323383271
 31
0.0
  0
LINE
  5
73D6
  8
0
 10
288.0
 20
230.14284323383259
 30
0.0
 11
287.0
 21
230.14284323383259
 31
0.0
  0
LINE
  5
73D7
  8
0
 10
288.0
 20
228.14284323383259
 30
0.0
 11
287.0
 21
228.14284323383259
 31
0.0
  0
LINE
  5
73D8
  8
0
 10
288.0
 20
227.14284323383271
 30
0.0
 11
287.0
 21
227.14284323383271
 31
0.0
  0
LINE
  5
73D9
  8
0
 10
288.0
 20
226.14284323383259
 30
0.0
 11
287.0
 21
226.14284323383259
 31
0.0
  0
LINE
  5
73DA
  8
0
 10
288.0
 20
225.14284323383271
 30
0.0
 11
287.0
 21
225.14284323383271
 31
0.0
  0
LINE
  5
73DB
  8
0
 10
288.0
 20
222.14284323383259
 30
0.0
 11
287.0
 21
222.14284323383259
 31
0.0
  0
LINE
  5
73DC
  8
0
 10
288.0
 20
223.14284323383271
 30
0.0
 11
287.0
 21
223.14284323383271
 31
0.0
  0
LINE
  5
73DD
  8
0
 10
288.0
 20
224.14284323383259
 30
0.0
 11
286.0
 21
224.14284323383259
 31
0.0
  0
LINE
  5
73DE
  8
0
 10
288.0
 20
238.14284323383259
 30
0.0
 11
287.0
 21
238.14284323383259
 31
0.0
  0
LINE
  5
73DF
  8
0
 10
288.0
 20
236.14284323383259
 30
0.0
 11
287.0
 21
236.14284323383259
 31
0.0
  0
LINE
  5
73E0
  8
0
 10
288.0
 20
235.14284323383271
 30
0.0
 11
287.0
 21
235.14284323383271
 31
0.0
  0
LINE
  5
73E1
  8
0
 10
288.0
 20
237.14284323383259
 30
0.0
 11
287.0
 21
237.14284323383259
 31
0.0
  0
LINE
  5
73E2
  8
0
 10
288.0
 20
231.14284323383271
 30
0.0
 11
287.0
 21
231.14284323383271
 31
0.0
  0
LINE
  5
73E3
  8
0
 10
288.0
 20
232.14284323383259
 30
0.0
 11
287.0
 21
232.14284323383259
 31
0.0
  0
LINE
  5
73E4
  8
0
 10
288.0
 20
233.14284323383271
 30
0.0
 11
287.0
 21
233.14284323383271
 31
0.0
  0
LINE
  5
73E5
  8
0
 10
288.0
 20
234.14284323383259
 30
0.0
 11
286.0
 21
234.14284323383259
 31
0.0
  0
LINE
  5
73E6
  8
0
 10
288.0
 20
239.14284323383259
 30
0.0
 11
285.0
 21
239.14284323383259
 31
0.0
  0
LINE
  5
73E7
  8
0
 10
288.0
 20
246.14284323383259
 30
0.0
 11
287.0
 21
246.14284323383259
 31
0.0
  0
LINE
  5
73E8
  8
0
 10
288.0
 20
247.14284323383259
 30
0.0
 11
287.0
 21
247.14284323383259
 31
0.0
  0
LINE
  5
73E9
  8
0
 10
288.0
 20
245.14284323383259
 30
0.0
 11
287.0
 21
245.14284323383259
 31
0.0
  0
LINE
  5
73EA
  8
0
 10
288.0
 20
244.14284323383259
 30
0.0
 11
286.0
 21
244.14284323383259
 31
0.0
  0
LINE
  5
73EB
  8
0
 10
288.0
 20
240.14284323383259
 30
0.0
 11
287.0
 21
240.14284323383259
 31
0.0
  0
LINE
  5
73EC
  8
0
 10
288.0
 20
241.14284323383259
 30
0.0
 11
287.0
 21
241.14284323383259
 31
0.0
  0
LINE
  5
73ED
  8
0
 10
288.0
 20
242.14284323383259
 30
0.0
 11
287.0
 21
242.14284323383259
 31
0.0
  0
LINE
  5
73EE
  8
0
 10
288.0
 20
243.14284323383259
 30
0.0
 11
287.0
 21
243.14284323383259
 31
0.0
  0
LINE
  5
73EF
  8
0
 10
288.0
 20
249.14284323383259
 30
0.0
 11
285.0
 21
249.14284323383259
 31
0.0
  0
LINE
  5
73F0
  8
0
 10
288.0
 20
255.14284323383259
 30
0.0
 11
287.0
 21
255.14284323383259
 31
0.0
  0
LINE
  5
73F1
  8
0
 10
288.0
 20
256.14284323383271
 30
0.0
 11
287.0
 21
256.14284323383271
 31
0.0
  0
LINE
  5
73F2
  8
0
 10
288.0
 20
254.14284323383271
 30
0.0
 11
286.0
 21
254.14284323383271
 31
0.0
  0
LINE
  5
73F3
  8
0
 10
288.0
 20
253.14284323383259
 30
0.0
 11
287.0
 21
253.14284323383259
 31
0.0
  0
LINE
  5
73F4
  8
0
 10
288.0
 20
248.14284323383271
 30
0.0
 11
287.0
 21
248.14284323383271
 31
0.0
  0
LINE
  5
73F5
  8
0
 10
288.0
 20
252.14284323383271
 30
0.0
 11
287.0
 21
252.14284323383271
 31
0.0
  0
LINE
  5
73F6
  8
0
 10
288.0
 20
251.14284323383259
 30
0.0
 11
287.0
 21
251.14284323383259
 31
0.0
  0
LINE
  5
73F7
  8
0
 10
288.0
 20
250.14284323383271
 30
0.0
 11
287.0
 21
250.14284323383271
 31
0.0
  0
LINE
  5
73F8
  8
0
 10
288.0
 20
259.14284323383271
 30
0.0
 11
285.0
 21
259.14284323383271
 31
0.0
  0
LINE
  5
73F9
  8
0
 10
288.0
 20
257.14284323383271
 30
0.0
 11
287.0
 21
257.14284323383271
 31
0.0
  0
LINE
  5
73FA
  8
0
 10
288.0
 20
258.14284323383271
 30
0.0
 11
287.0
 21
258.14284323383271
 31
0.0
  0
LINE
  5
73FB
  8
0
 10
288.0
 20
263.14284323383271
 30
0.0
 11
287.0
 21
263.14284323383271
 31
0.0
  0
LINE
  5
73FC
  8
0
 10
288.0
 20
262.14284323383271
 30
0.0
 11
287.0
 21
262.14284323383271
 31
0.0
  0
LINE
  5
73FD
  8
0
 10
288.0
 20
261.14284323383271
 30
0.0
 11
287.0
 21
261.14284323383271
 31
0.0
  0
LINE
  5
73FE
  8
0
 10
288.0
 20
264.14284323383271
 30
0.0
 11
286.0
 21
264.14284323383271
 31
0.0
  0
LINE
  5
73FF
  8
0
 10
288.0
 20
260.14284323383271
 30
0.0
 11
287.0
 21
260.14284323383271
 31
0.0
  0
LINE
  5
7400
  8
0
 10
288.0
 20
269.14284323383271
 30
0.0
 11
285.0
 21
269.14284323383271
 31
0.0
  0
LINE
  5
7401
  8
0
 10
288.0
 20
271.14284323383271
 30
0.0
 11
287.0
 21
271.14284323383271
 31
0.0
  0
LINE
  5
7402
  8
0
 10
288.0
 20
270.14284323383271
 30
0.0
 11
287.0
 21
270.14284323383271
 31
0.0
  0
LINE
  5
7403
  8
0
 10
288.0
 20
273.14284323383271
 30
0.0
 11
287.0
 21
273.14284323383271
 31
0.0
  0
LINE
  5
7404
  8
0
 10
288.0
 20
272.14284323383271
 30
0.0
 11
287.0
 21
272.14284323383271
 31
0.0
  0
LINE
  5
7405
  8
0
 10
288.0
 20
265.14284323383271
 30
0.0
 11
287.0
 21
265.14284323383271
 31
0.0
  0
LINE
  5
7406
  8
0
 10
288.0
 20
266.14284323383271
 30
0.0
 11
287.0
 21
266.14284323383271
 31
0.0
  0
LINE
  5
7407
  8
0
 10
288.0
 20
267.14284323383271
 30
0.0
 11
287.0
 21
267.14284323383271
 31
0.0
  0
LINE
  5
7408
  8
0
 10
288.0
 20
268.14284323383271
 30
0.0
 11
287.0
 21
268.14284323383271
 31
0.0
  0
LINE
  5
7409
  8
0
 10
288.0
 20
279.14284323383271
 30
0.0
 11
285.0
 21
279.14284323383271
 31
0.0
  0
LINE
  5
740A
  8
0
 10
288.0
 20
280.14284323383271
 30
0.0
 11
287.0
 21
280.14284323383271
 31
0.0
  0
LINE
  5
740B
  8
0
 10
288.0
 20
282.14284323383282
 30
0.0
 11
287.0
 21
282.14284323383282
 31
0.0
  0
LINE
  5
740C
  8
0
 10
288.0
 20
281.14284323383271
 30
0.0
 11
287.0
 21
281.14284323383271
 31
0.0
  0
LINE
  5
740D
  8
0
 10
288.0
 20
274.14284323383271
 30
0.0
 11
286.0
 21
274.14284323383271
 31
0.0
  0
LINE
  5
740E
  8
0
 10
288.0
 20
275.14284323383271
 30
0.0
 11
287.0
 21
275.14284323383271
 31
0.0
  0
LINE
  5
740F
  8
0
 10
288.0
 20
276.14284323383271
 30
0.0
 11
287.0
 21
276.14284323383271
 31
0.0
  0
LINE
  5
7410
  8
0
 10
288.0
 20
277.14284323383271
 30
0.0
 11
287.0
 21
277.14284323383271
 31
0.0
  0
LINE
  5
7411
  8
0
 10
288.0
 20
278.14284323383271
 30
0.0
 11
287.0
 21
278.14284323383271
 31
0.0
  0
LINE
  5
7412
  8
0
 10
288.0
 20
289.14284323383282
 30
0.0
 11
285.0
 21
289.14284323383282
 31
0.0
  0
LINE
  5
7413
  8
0
 10
288.0
 20
284.14284323383282
 30
0.0
 11
286.0
 21
284.14284323383282
 31
0.0
  0
LINE
  5
7414
  8
0
 10
288.0
 20
283.14284323383271
 30
0.0
 11
287.0
 21
283.14284323383271
 31
0.0
  0
LINE
  5
7415
  8
0
 10
288.0
 20
285.14284323383282
 30
0.0
 11
287.0
 21
285.14284323383282
 31
0.0
  0
LINE
  5
7416
  8
0
 10
288.0
 20
286.14284323383282
 30
0.0
 11
287.0
 21
286.14284323383282
 31
0.0
  0
LINE
  5
7417
  8
0
 10
288.0
 20
287.14284323383282
 30
0.0
 11
287.0
 21
287.14284323383282
 31
0.0
  0
LINE
  5
7418
  8
0
 10
288.0
 20
288.14284323383282
 30
0.0
 11
287.0
 21
288.14284323383282
 31
0.0
  0
LINE
  5
7419
  8
0
 10
288.0
 20
291.14284323383282
 30
0.0
 11
287.0
 21
291.14284323383282
 31
0.0
  0
LINE
  5
741A
  8
0
 10
288.0
 20
290.14284323383282
 30
0.0
 11
287.0
 21
290.14284323383282
 31
0.0
  0
LINE
  5
741B
  8
0
 10
288.0
 20
299.14284323383282
 30
0.0
 11
285.0
 21
299.14284323383282
 31
0.0
  0
LINE
  5
741C
  8
0
 10
288.0
 20
296.14284323383282
 30
0.0
 11
287.0
 21
296.14284323383282
 31
0.0
  0
LINE
  5
741D
  8
0
 10
288.0
 20
297.14284323383282
 30
0.0
 11
287.0
 21
297.14284323383282
 31
0.0
  0
LINE
  5
741E
  8
0
 10
288.0
 20
298.14284323383282
 30
0.0
 11
287.0
 21
298.14284323383282
 31
0.0
  0
LINE
  5
741F
  8
0
 10
288.0
 20
294.14284323383282
 30
0.0
 11
286.0
 21
294.14284323383282
 31
0.0
  0
LINE
  5
7420
  8
0
 10
288.0
 20
295.14284323383282
 30
0.0
 11
287.0
 21
295.14284323383282
 31
0.0
  0
LINE
  5
7421
  8
0
 10
288.0
 20
293.14284323383282
 30
0.0
 11
287.0
 21
293.14284323383282
 31
0.0
  0
LINE
  5
7422
  8
0
 10
288.0
 20
292.14284323383282
 30
0.0
 11
287.0
 21
292.14284323383282
 31
0.0
  0
LINE
  5
7423
  8
0
 10
288.0
 20
305.14284323383282
 30
0.0
 11
287.0
 21
305.14284323383282
 31
0.0
  0
LINE
  5
7424
  8
0
 10
288.0
 20
306.14284323383282
 30
0.0
 11
287.0
 21
306.14284323383282
 31
0.0
  0
LINE
  5
7425
  8
0
 10
288.0
 20
307.14284323383282
 30
0.0
 11
287.0
 21
307.14284323383282
 31
0.0
  0
LINE
  5
7426
  8
0
 10
288.0
 20
308.14284323383282
 30
0.0
 11
287.0
 21
308.14284323383282
 31
0.0
  0
LINE
  5
7427
  8
0
 10
288.0
 20
304.14284323383282
 30
0.0
 11
286.0
 21
304.14284323383282
 31
0.0
  0
LINE
  5
7428
  8
0
 10
288.0
 20
303.14284323383282
 30
0.0
 11
287.0
 21
303.14284323383282
 31
0.0
  0
LINE
  5
7429
  8
0
 10
288.0
 20
302.14284323383282
 30
0.0
 11
287.0
 21
302.14284323383282
 31
0.0
  0
LINE
  5
742A
  8
0
 10
288.0
 20
301.14284323383282
 30
0.0
 11
287.0
 21
301.14284323383282
 31
0.0
  0
LINE
  5
742B
  8
0
 10
288.0
 20
300.14284323383282
 30
0.0
 11
287.0
 21
300.14284323383282
 31
0.0
  0
LINE
  5
742C
  8
0
 10
288.0
 20
309.14284323383282
 30
0.0
 11
285.0
 21
309.14284323383282
 31
0.0
  0
LINE
  5
742D
  8
0
 10
288.0
 20
314.14284323383282
 30
0.0
 11
286.0
 21
314.14284323383282
 31
0.0
  0
LINE
  5
742E
  8
0
 10
288.0
 20
315.14284323383282
 30
0.0
 11
287.0
 21
315.14284323383282
 31
0.0
  0
LINE
  5
742F
  8
0
 10
288.0
 20
316.14284323383282
 30
0.0
 11
287.0
 21
316.14284323383282
 31
0.0
  0
LINE
  5
7430
  8
0
 10
288.0
 20
317.14284323383282
 30
0.0
 11
287.0
 21
317.14284323383282
 31
0.0
  0
LINE
  5
7431
  8
0
 10
288.0
 20
312.14284323383282
 30
0.0
 11
287.0
 21
312.14284323383282
 31
0.0
  0
LINE
  5
7432
  8
0
 10
288.0
 20
311.14284323383282
 30
0.0
 11
287.0
 21
311.14284323383282
 31
0.0
  0
LINE
  5
7433
  8
0
 10
288.0
 20
310.14284323383282
 30
0.0
 11
287.0
 21
310.14284323383282
 31
0.0
  0
LINE
  5
7434
  8
0
 10
288.0
 20
313.14284323383282
 30
0.0
 11
287.0
 21
313.14284323383282
 31
0.0
  0
LINE
  5
7435
  8
0
 10
288.0
 20
319.14284323383282
 30
0.0
 11
285.0
 21
319.14284323383282
 31
0.0
  0
LINE
  5
7436
  8
0
 10
288.0
 20
324.14284323383282
 30
0.0
 11
286.0
 21
324.14284323383282
 31
0.0
  0
LINE
  5
7437
  8
0
 10
288.0
 20
323.14284323383282
 30
0.0
 11
287.0
 21
323.14284323383282
 31
0.0
  0
LINE
  5
7438
  8
0
 10
288.0
 20
322.14284323383282
 30
0.0
 11
287.0
 21
322.14284323383282
 31
0.0
  0
LINE
  5
7439
  8
0
 10
288.0
 20
325.14284323383282
 30
0.0
 11
287.0
 21
325.14284323383282
 31
0.0
  0
LINE
  5
743A
  8
0
 10
288.0
 20
321.14284323383282
 30
0.0
 11
287.0
 21
321.14284323383282
 31
0.0
  0
LINE
  5
743B
  8
0
 10
288.0
 20
320.14284323383282
 30
0.0
 11
287.0
 21
320.14284323383282
 31
0.0
  0
LINE
  5
743C
  8
0
 10
288.0
 20
318.14284323383282
 30
0.0
 11
287.0
 21
318.14284323383282
 31
0.0
  0
LINE
  5
743D
  8
0
 10
288.0
 20
329.14284323383282
 30
0.0
 11
285.0
 21
329.14284323383282
 31
0.0
  0
LINE
  5
743E
  8
0
 10
288.0
 20
334.14284323383282
 30
0.0
 11
286.0
 21
334.14284323383282
 31
0.0
  0
LINE
  5
743F
  8
0
 10
288.0
 20
333.14284323383282
 30
0.0
 11
287.0
 21
333.14284323383282
 31
0.0
  0
LINE
  5
7440
  8
0
 10
288.0
 20
332.14284323383282
 30
0.0
 11
287.0
 21
332.14284323383282
 31
0.0
  0
LINE
  5
7441
  8
0
 10
288.0
 20
331.14284323383282
 30
0.0
 11
287.0
 21
331.14284323383282
 31
0.0
  0
LINE
  5
7442
  8
0
 10
288.0
 20
326.14284323383282
 30
0.0
 11
287.0
 21
326.14284323383282
 31
0.0
  0
LINE
  5
7443
  8
0
 10
288.0
 20
327.14284323383282
 30
0.0
 11
287.0
 21
327.14284323383282
 31
0.0
  0
LINE
  5
7444
  8
0
 10
288.0
 20
328.14284323383282
 30
0.0
 11
287.0
 21
328.14284323383282
 31
0.0
  0
LINE
  5
7445
  8
0
 10
288.0
 20
330.14284323383282
 30
0.0
 11
287.0
 21
330.14284323383282
 31
0.0
  0
LINE
  5
7446
  8
0
 10
288.0
 20
339.14284323383282
 30
0.0
 11
285.0
 21
339.14284323383282
 31
0.0
  0
LINE
  5
7447
  8
0
 10
288.0
 20
343.14284323383282
 30
0.0
 11
287.0
 21
343.14284323383282
 31
0.0
  0
LINE
  5
7448
  8
0
 10
288.0
 20
342.14284323383282
 30
0.0
 11
287.0
 21
342.14284323383282
 31
0.0
  0
LINE
  5
7449
  8
0
 10
288.0
 20
341.14284323383282
 30
0.0
 11
287.0
 21
341.14284323383282
 31
0.0
  0
LINE
  5
744A
  8
0
 10
288.0
 20
340.14284323383282
 30
0.0
 11
287.0
 21
340.14284323383282
 31
0.0
  0
LINE
  5
744B
  8
0
 10
288.0
 20
337.14284323383282
 30
0.0
 11
287.0
 21
337.14284323383282
 31
0.0
  0
LINE
  5
744C
  8
0
 10
288.0
 20
335.14284323383282
 30
0.0
 11
287.0
 21
335.14284323383282
 31
0.0
  0
LINE
  5
744D
  8
0
 10
288.0
 20
336.14284323383282
 30
0.0
 11
287.0
 21
336.14284323383282
 31
0.0
  0
LINE
  5
744E
  8
0
 10
288.0
 20
338.14284323383282
 30
0.0
 11
287.0
 21
338.14284323383282
 31
0.0
  0
LINE
  5
744F
  8
0
 10
288.0
 20
349.14284323383282
 30
0.0
 11
285.0
 21
349.14284323383282
 31
0.0
  0
LINE
  5
7450
  8
0
 10
288.0
 20
350.14284323383282
 30
0.0
 11
287.0
 21
350.14284323383282
 31
0.0
  0
LINE
  5
7451
  8
0
 10
288.0
 20
351.14284323383282
 30
0.0
 11
287.0
 21
351.14284323383282
 31
0.0
  0
LINE
  5
7452
  8
0
 10
288.0
 20
352.14284323383282
 30
0.0
 11
287.0
 21
352.14284323383282
 31
0.0
  0
LINE
  5
7453
  8
0
 10
288.0
 20
348.14284323383282
 30
0.0
 11
287.0
 21
348.14284323383282
 31
0.0
  0
LINE
  5
7454
  8
0
 10
288.0
 20
344.14284323383282
 30
0.0
 11
286.0
 21
344.14284323383282
 31
0.0
  0
LINE
  5
7455
  8
0
 10
288.0
 20
345.14284323383282
 30
0.0
 11
287.0
 21
345.14284323383282
 31
0.0
  0
LINE
  5
7456
  8
0
 10
288.0
 20
347.14284323383282
 30
0.0
 11
287.0
 21
347.14284323383282
 31
0.0
  0
LINE
  5
7457
  8
0
 10
288.0
 20
346.14284323383282
 30
0.0
 11
287.0
 21
346.14284323383282
 31
0.0
  0
LINE
  5
7458
  8
0
 10
288.0
 20
359.14284323383282
 30
0.0
 11
285.0
 21
359.14284323383282
 31
0.0
  0
LINE
  5
7459
  8
0
 10
288.0
 20
358.14284323383282
 30
0.0
 11
287.0
 21
358.14284323383282
 31
0.0
  0
LINE
  5
745A
  8
0
 10
288.0
 20
357.14284323383282
 30
0.0
 11
287.0
 21
357.14284323383282
 31
0.0
  0
LINE
  5
745B
  8
0
 10
288.0
 20
353.14284323383282
 30
0.0
 11
287.0
 21
353.14284323383282
 31
0.0
  0
LINE
  5
745C
  8
0
 10
288.0
 20
354.14284323383282
 30
0.0
 11
286.0
 21
354.14284323383282
 31
0.0
  0
LINE
  5
745D
  8
0
 10
288.0
 20
356.14284323383282
 30
0.0
 11
287.0
 21
356.14284323383282
 31
0.0
  0
LINE
  5
745E
  8
0
 10
288.0
 20
355.14284323383282
 30
0.0
 11
287.0
 21
355.14284323383282
 31
0.0
  0
LINE
  5
745F
  8
0
 10
10.0
 20
360.14284323383282
 30
0.0
 11
11.0
 21
360.14284323383282
 31
0.0
  0
LINE
  5
7468
  8
0
 10
193.8306434339124
 20
121.5373233503725
 30
0.0
 11
203.83064343391271
 21
121.5373233503725
 31
0.0
  0
LINE
  5
7469
  8
0
 10
193.8306434339124
 20
121.5373233503725
 30
0.0
 11
203.83064343391271
 21
121.5373233503725
 31
0.0
  0
LINE
  5
746A
  8
0
 10
193.8306434339124
 20
121.5373233503725
 30
0.0
 11
203.83064343391271
 21
121.5373233503725
 31
0.0
  0
LINE
  5
746B
  8
0
 10
203.83064343391271
 20
111.5373233503725
 30
0.0
 11
193.8306434339124
 21
111.5373233503725
 31
0.0
  0
LINE
  5
746C
  8
0
 10
193.83064343391271
 20
121.5373233503725
 30
0.0
 11
193.83064343391271
 21
111.5373233503725
 31
0.0
  0
TEXT
  5
746D
  8
0
 10
208.75889314425041
 20
115.2873233503725
 30
0.0
 40
2.5
  1
流入検出
 11
208.75889314425041
 21
116.5373233503725
 31
0.0
 73
     2
  0
LINE
  5
746E
  8
0
 10
202.61588281626109
 20
116.65877071083089
 30
0.0
 11
195.61588281626109
 21
116.65877071083089
 31
0.0
  0
LINE
  5
746F
  8
0
 10
202.61588281626109
 20
116.65877071083089
 30
0.0
 11
201.61588281626109
 21
115.65877071083079
 31
0.0
  0
LINE
  5
7470
  8
0
 10
202.61588281626109
 20
116.65877071083089
 30
0.0
 11
201.61588281626109
 21
117.65877071083089
 31
0.0
  0
LINE
  5
7471
  8
0
 10
203.83064343391271
 20
121.5373233503725
 30
0.0
 11
203.83064343391271
 21
111.5373233503725
 31
0.0
  0
TEXT
  5
781C
  8
0
 10
138.10298273989741
 20
128.78523320705591
 30
0.0
 40
2.5
  1
1作業日毎に記す
 11
138.10298273989741
 21
130.03523320705591
 31
0.0
 73
     2
  0
TEXT
  5
78EA
  8
0
 10
73.775838725322075
 20
45.316051797332612
 30
0.0
 40
2.0
  1
必要に応じて図模様を用いても可
 11
73.775838725322075
 21
46.316051797332598
 31
0.0
 73
     2
  0
TEXT
  5
78EB
  8
0
 10
73.775838725322075
 20
49.114004723854762
 30
0.0
 40
2.0
  1
コア形状・風化・変質については、
 11
73.775838725322075
 21
50.114004723854748
 31
0.0
 73
     2
  0
VIEWPORT
  5
7462
 67
     1
  8
0
 10
63.379714567022802
 20
183.7449289945998
 30
0.0
 40
312.00160463385379
 41
240.8901277942291
 68
     1
 69
     1
1001
ACAD
1000
MVIEW
1002
{
1070
    16
1010
0.0
1020
0.0
1030
0.0
1010
0.0
1020
0.0
1030
1.0
1040
0.0
1040
240.8901277942291
1040
63.379714567022802
1040
183.7449289945998
1040
50.0
1040
0.0
1040
0.0
1070
     0
1070
   100
1070
     1
1070
     1
1070
     0
1070
     0
1070
     0
1070
     0
1040
0.0
1040
0.0
1040
0.0
1040
10.0
1040
10.0
1040
10.0
1040
10.0
1070
     0
1002
{
1002
}
1002
}
  0
ENDSEC
  0
EOF
